Oops, an error
Loading. Please wait.

El Zorro Y La Llama Tab

version 1
version 1

Whole song

247 views 3 this week
no commentswrite comment
1 2 3 4 5
3 more votes to show rating
add to favorites
launch autoscroll
font size
0
reset
how to read this tab
guitar tuner
×
Best way to learn
"El Zorro Y La Llama"
Autoscroll
slow
fast
+/-
esc
set tempo
stop
Acordes:(todos los acordes q' se usan en esta rola son quintas)

    SI5  SI5*  LA5  FA#5  RE5  SOL5
4:   -    -     -    -    |7|   -
5:  |9|  |10|  |7|  |4|   |5|  |5|
6:  |7|  |7|   |5|  |2|    -   |3|

(los acordes y el intro se tocan apoyando la mano q' rasguea en
 las cuerdas)


INTRO:
4:-----
5:-2-2-
6:-----

 ->*(4 veces)
4:-4-----5-----4------2-0------4-----5-----4----------------
5:---2-2---2-2---2-2------4-2----2-2---2-2---2-2----------2-
6:------------------------------------------------2-5-2-5---


  SI5  SI5*      LA5       FA#5
  Mar, tierra, lugares que no hay
  SI5     SI5*     LA5       FA#5 
  dijo el zorro después de soñar
  SI5               SI5*           LA5         FA#5
  cuando llegó la invitación de la llama al zorro
  SI5                SI5*                LA5         FA#5
  que asistiera a la gran reunión que daría en el pueblo


(aquí de nuevo el intro, pero sólo 2 veces)
4:-----
5:-2-2-
6:-----

 ->*(2 veces)
4:-4-----5-----4------2-0------4-----5-----4----------------
5:---2-2---2-2---2-2------4-2----2-2---2-2---2-2----------2-
6:------------------------------------------------2-5-2-5---


  SI5      SI5*     LA5       FA#5
  llegó la noche el plan reventó
     SI5        SI5* LA5      FA#5
  el zorro a la cena se presentó 
  SI5       SI5*     LA5        FA#5
  llamas, vicuñas, delicias que hay
  SI5     SI5*     LA5       FA#5
  dijo el zorro después de cenar

  CORO:
  RE5        LA5       SI5             FA#5-SOL5-FA#5
  santa pachamama el zorro le dio a la llama
  RE5           LA5   SI5            FA#5-SOL5-FA#5
  más que se mezclaba es lo que expresaba
  RE5        LA5  SI5           FA#5-SOL5-FA#5
  santa pachamama se comió a la llama
  RE5           LA5   SI5           FA#5-SOL5-FA#5
  que en alguna huida cuando lo ... pobre llama

  ¿? (el 'solo' me parecio muy 'facil' de sacar, asi que
      se lo dejo a los aprendices, si logran sacarlo por  
      favor envienmelo)

  SI5  LA5-SI5  LA5  SOL5-FA#5
  SI5  LA5-SI5  LA5  SOL5-FA#5  

      SI5     SI5*     LA5       FA#5
  a cadena perpetua condeno al zorro
  SI5        SI5*  LA5        FA#5
  buena recompensa vivo o muerto
        SI5         SI5*   LA5         FA#5
  en el pueblo se velaba todos los cuerpos
        SI5    SI5*      LA5      FA#5
  y al abismo abierto se le sentencio

  CORO:
  RE5        LA5       SI5             FA#5-SOL5-FA#5
  santa pachamama el zorro le dio a la llama
  RE5           LA5   SI5            FA#5-SOL5-FA#5
  más que se mezclaba es lo que expresaba
  RE5        LA5  SI5           FA#5-SOL5-FA#5
  santa pachamama se comió a la llama
  RE5           LA5   SI5           FA#5-SOL5-FA#5
  que en alguna huida cuando lo ... pobre llama

4:-----
5:-2-2-
6:-----

4:-4-----5-----4------2-0------4-----5-----4----------------
5:---2-2---2-2---2-2------4-2----2-2---2-2---2-2----------2-
6:------------------------------------------------2-5-2-5---

4:-4-----5-----4------2-0------4-----5-----4--------------
5:---2-2---2-2---2-2------4-2----2-2---2-2---2-2---------- si5
6:------------------------------------------------2-5-2-5-


///////////////////////////////////////////////////////////////
coro opcional:

4:-----4-----------------------4------------------
5:-5-7---7-5-4-2-4-5-5-4---5-7---7-5-4-2-4-5-5-4--

4:-----4-----------------------4-7-5-4---4-5-0-
5:-5-7---7-5-4-2-4-5-5-4---5-7---------7-------
Suggest correction
Give kudos to tab author, rate the tab!
1 2 3 4 5
comments
print report bad tab
guest
You may want to rate the tab now too:
select rating
Wanna post a correction for this tab? Suggest correction