Oops, an error
Loading. Please wait.

El Zorro Y La Llama Tab

version 3
version 3

Whole song

168 views 1 this week
no commentswrite comment
1 2 3 4 5
3 more votes to show rating
add to favorites
launch autoscroll
font size
0
reset
how to read this tab
guitar tuner
×
Best way to learn
"El Zorro Y La Llama"
Autoscroll
slow
fast
+/-
esc
set tempo
stop
esta es la segunda guitarra del tab anterior tremolo en vivo 
es muy buena metal seeeeeeee
.. en el segundo intro verdadero :

E----------------------------------
B----------------------------------
G----------------------------------
D----------------------------------
A-----9-----10-----9-----7---------
E-7-7---7-7----7-7-----7---10-9-7v-

E----------------------------------
B----------------------------------
G----------------------------------
D----------------------------------
A-----9-----10-----9--------------
E-7-7---7-7----7-7----77--5-2-5-7v-

            riff----> e--16b--
                      B-------

repetir intro pero sin riff

entra segunda guitarra:

E-------------------------------
B-------------------------------
G-------------------------------
D-----4-----5-----4----2-5-2-5v-
A-2-2---2-2---2-2----2----------
E-------------------------------


E-------------------------------
B-------------------------------
G-------------------------------
D-----4----5-----4-----0-----2v-
A-2-2---2-2---2-2--2-2---2-5----
E-------------------------------


E-------------------------------
B-------------------------------
G-------------------------------
D-----4-----5-----4----2-5-2-2v-
A-2-2---2-2---2-2----2----------
E-------------------------------


E-------------------------------
B-------------------------------
G-------------------------------
D-----4----5-----4-----0-----2v-
A-2-2---2-2---2-2--2-2---2-5----
E-------------------------------


Bm5   G5      A5     F#5
mar tierra lugares q ay
Bm5     G5        A5    F#5
dijo el zorro después de soñar

Bm5             G5                A5       F#5
cuando llego la invitación de la llama al zorro
Bm5               G5              A5          F#5
q asistiera a la gran reunión q daría en el pueblo

.. las dos guitarras con el intro comun..

Bm5       G5         A5      F#5
llego la noche del gran reventón
Bm5              G5    A5      F#5
y el zorro a la cena se presento
riff
Bm5       G5         A5  F#5
llamas vicuñas delicias q ay
Bm5       G5       A5      F#5
dijo el zorro después de cenar

D5          A5       Bm5             G5 F#m5 G5 F#m5
santa pachamama el zorro le dio a la lla a ama a a
D5          A5       Bm5       G5 F#m5 G5 F#m5
casi se me escapa cuando se expre s a b a

D5          A5  Bm5         G5 F#m5 G5 F#m5
santa pachamama se comio a la l l a m a
D5          A5    Bm5        G5 F#m5 G5 F#m5
y a la puna wuia cuandó lo corre t e a ba


--> Solo: hacer intro dos veces y luego:  Bm5 - G5   -  A5   - F#5 (dos veces) --> dandole

el tiempo de la cancion

  ..Bm5 A5 G5
  ..A5 G5 F#5  (D0s veces este circulo dandole un golpe por acorde)


Bm5          G5      A5         F#5
a cadena perpetua pusieron al zorro
Bm5          G5     A5          F#5
muy buena sentencia dijo los muertos
Bm5               G5       A5        F#5
en el pueblo se velaba a todos los cuerpos
Bm5             G5       A5    F#5
y a cadena abierta se le sentencio.


D5          A5       Bm5             F#m5 G5 F#m5
santa pachamama el zorro le dio a la llaaamaaa
D5          A5       Bm5         F#m5 G5 F#m5
casi se me escapa cuando se expre s a b a

D5          A5  Bm5          F#m5 G5 F#m5
santa pachamama se comio a la l l a m a
D5          A5    Bm5         F#m5 G5 F#m5
y a la puna wuia cuandó lo corre t e a ba

Repetir intro comun para 2 guitarras

acordes: .. ya no sean vivos vean en el glosario de acordes de la portada de esta pagina

jeje pero usen los acordes relativos que se tocan en otra posicion con puente que no sea la

primera

consultas a jdym_davis@

                   _
                 <| 
                 <|  
                 <|  _
             <|  |
             <|  |
             <|  |
                  |_/
              |_|
              |_|
              |_|
              |_|
                |_|
         _      |_|     _          ------->  JDYM <------
                  |_|   / /
            _ | |_ / /
             | |  l l   |
             | | ---- / |
             | | --- /  |    __>  Se volaron las cuerdas
             | |       |
            /    ---  
           /    _____/  
                        /
            ___________/
Suggest correction
Give kudos to tab author, rate the tab!
1 2 3 4 5
comments
print report bad tab
guest
You may want to rate the tab now too:
select rating
Wanna post a correction for this tab? Suggest correction