Oops, an error
Loading. Please wait.

Entre Espinas Tab

25 views 3 this week
no commentswrite comment
1 2 3 4 5
3 more votes to show rating
add to favorites
launch autoscroll
font size
0
reset
how to read this tab
guitar tuner
×
Best way to learn
"Entre Espinas"
Autoscroll
slow
fast
+/-
esc
set tempo
stop
Trémolo
Entre espinas

Acá les mando esta canciòn completa de trèmolo. Los acordes lo sacan de la otra
publicación. El RIFF no estoy muy seguro, si alguien tiene la corrección me lo 
manda al correo rockinyourhead@

Intro:

e----0--2-------0--2----------------------------------------3p2---2---0h2-2-
B---3----3-----3----3------0--2-------0--2--------2h3-----3----3---3--------
G--2----------2-----------2----2-----2----2-----4--------2-2--------2-------
D-0----------0-----------2----------2----------4-4------0-------------------
A-----------------------0----------0----------2-----------------------------
E---------------------------------------------------------------------------

RIFF:

e---------------------
B---------------------
G---------------------
D---------------------
A-9-7-----7-----------
E-----10-9-10-9-5-7---


SOLO:


e-------4-5-4-4--------------------------------5p4-4----------------
B--4-5-7-----7-7-5-7---------------4h5-4-5----5---5-5---4-5-4-5-7-9-
G-6-----------------6---4h6-4-4-----------6-------------------------
D----------------------------7-7------------------------------------
A-------------------------------------------------------------------
E-------------------------------------------------------------------

e-7h9b-7-5-7b---5-4---4-------------9-11-12-14b-12-11-9----------------------
B------------------7-7---------10-12-------------------12-10-----10----------
G-------------------------11-13-----------------------------13-13--13-11-13b-
D----------------------------------------------------------------------------
A----------------------------------------------------------------------------
E----------------------------------------------------------------------------

e-18b-18b-18b-18b-18b-18b-17b----
B--------------------------------
G--------------------------------
D--------------------------------
A--------------------------------
E--------------------------------


		!!!! Y RECUERDEN APOYEN EL ROCK NACIONAL !!!!


Cualquier sugerencia, correción o pedido, escríbanme a rockinyourhead@ 
                                                                        
                                                                      __     
                                                                    +|oo|+       
                                                                    +|oo|+      
                                                                    +|oo|+      
\_  \_  \_  \_  \_  \_  \_  \_ \_  \_  \_  \_  \_  \_  \_             ||        
                                                                      ||       
\_\_\_\_\_   \_\_\_\_\_   \_\_\_\_\_    \_\_\_\_\_                    ||      
     \_       \_      \_   \_            \_        \_                 ||  
      \_       \_     \_    \_            \_        \_                ||        
       \_       \_\_\_\_     \_            \_        \_               ||  
        \_       \_           \_            \_       \_               ||        
         \_       \_           \_            \_      \_            _  ||  _   
  \_\_\_\_\_       \_           \_\_\_\_\_    \_\_\_\_             \\_||_//        
                                                                    | [] |   
  \_  \_  \_  \_  \_  \_  \_   \_  \_  \_  \_  \_  \_  \_  \_       | || |    
                                                                   / _[]_ \   
                                                                   \______/
Suggest correction
Give kudos to tab author, rate the tab!
1 2 3 4 5
comments
print report bad tab
guest
You may want to rate the tab now too:
select rating
Wanna post a correction for this tab? Suggest correction