Oops, an error
Loading. Please wait.

Hojas Secas Tab

by Tremolo
83 views 1 this week
no commentswrite comment
1 2 3 4 5
3 more votes to show rating
add to favorites
launch autoscroll
font size
0
reset
how to read this tab
guitar tuner
×
Best way to learn
"Hojas Secas"
Autoscroll
slow
fast
+/-
esc
set tempo
stop
ESTE ES EL SOLO MUY BUENO

SOLO:

  ~~                     ~~
|-18----19-22-23b24r23---23--19----------|
|-------------------------------20-------|
|----------------------------------21----|
|----------------------------------------|
|----------------------------------------|
|----------------------------------------|


                    ~~
|--------------------------------------18b19r18-------|
|-------------------------------19-/22----------20----|
|-19b21r(19)p17-19----------19------------------------|
|------------------22----19---------------------------|
|---------------------21------------------------------|
|-----------------------------------------------------|


   ~~
|----18b19r18-------18b19r18--------------|
|-------------20-------------20-----20----|
|-21-------------21--------------21-------|
|-----------------------------------------|
|-----------------------------------------|
|-----------------------------------------|


                                                 ~~
|-----------------------------------------------------|
|-22----------------------21-17-----------------------|
|-----------------------------------------------------|
|----17-19-19b21r19b21r19--------19b21r19-17-19-17----|
|-----------------------------------------------------|
|-----------------------------------------------------|


|-------------19-----------------|
|-------17-20----20-17-----------|
|----16----------------16--------|
|-17-----------------------17----|
|--------------------------------|
|--------------------------------|


                        ~~
|----------19-17-19-17-20---22b23----|
|----17-20---------------------------|
|-16---------------------------------|
|------------------------------------|
|------------------------------------|
|------------------------------------|


   ~~
|-23----22-------------22-19--------|
|----------------18b20--------20----|
|----19----19-----------------------|
|-------------19--------------------|
|-----------------------------------|
|-----------------------------------|


      ~~
|----------------------------------|
|----------------------------------|
|-------------------19-------------|
|-19-21-17S19-19b21----20b21r20----|
|----------------------------------|
|----------------------------------|


               ~~~~~
|----17-19-22-22-22----|
|-20-------------------|
|----------------------|
|----------------------|
|----------------------|
|----------------------|


BUENO PX AHY TODA LA CANCION ES UN COVER ORIGINAL DE DIABLOS NEGROS
MUY BUENA PRACTICENLA PARA QUE LE SALGA BIEN PX
SALUDOS PARA TODALA GENTE DE EL COLE JLO Y PARA TODA LA GENTE DE LA
LA AYACUCHO LA 10 Y LA JUNIN LA 10 GENTE ROCKERA :D
Suggest correction
Give kudos to tab author, rate the tab!
1 2 3 4 5
comments
print report bad tab
guest
You may want to rate the tab now too:
select rating
Wanna post a correction for this tab? Suggest correction