Oops, an error
Loading. Please wait.

Marchate Tab

version 1
version 1

Whole song

by Tremolo
89 views 1 this week
no commentswrite comment
1 2 3 4 5
3 more votes to show rating
add to favorites
×
Save as Personal and add changes to this tab that will be seen only by you. Learn more ›
×
You can save this tab as Personal to edit and correct it or add notes. All changes will be seen only by you. Learn more »
save as personal
new!
launch autoscroll
font size
0
reset
how to read this tab
guitar tuner
Autoscroll
slow
fast
+/-
esc
set tempo
stop
Trémolo
Márchate

Hola gente, acá les mando esta súper canción,un rock-balada, completo en un 95%. 
Solo no he sacado pequeñas partes de los solos que son algo trancas, por lo demás todo
está bien. Los acordes lo sacan de las otras publicaciones pes, no voy a estar copiando
todo, no? 

INTRO:

                
 e------3----------0h2p0---------0-------0---------
 B------3----------------0-------0------1--1-------
 G------0------------------------0-----0-----0-----
 D-------------0-------------------------------2---
 A----2-----2-3-(0)------------2-----3-------------
 E--3------------------------0---------------------


1ER SOLO:

 e-19-19-17p15-19-19-17p15--------------------------15------------17h19------------19h20-22b--20p19------------
 B-------------------------17-15h17------------15-----17--17h19h20-----20--17h19h20----------------20---22b-20-
 G---------------------------------16--16-16h17--16------------------------------------------------------------
 D-------------------------------------------------------------------------------------------------------------
 A-------------------------------------------------------------------------------------------------------------
 E-------------------------------------------------------------------------------------------------------------


2DO SOLO:


 e-15b-----19---19---19---19-----------------------------------------------------------15b----
 B-------20---19---17---15----13b---13-15-17-15-13-12h13-12---13-12-10-8-10-8-7-5---7-8-------
 G--------------------------------------------------------------------------------------------
 D--------------------------------------------------------------------------------------------
 A--------------------------------------------------------------------------------------------
 E--------------------------------------------------------------------------------------------

 e------------------------------------------
 B--13-12b---12p10-10b---10p8-8b------------
 G------------------------------------------
 D------------------------------------------
 A------------------------------------------
 E------------------------------------------


3ER SOLO:

 e-19b-17-15-14-15-14------------------------------------------10-12-14-15---15-14-15-17-19--19-20-22b-
 B--------------------15---12-12-13-10h12p10-8-12b-----10-12-13----------------------------------------
 G---------------------------------------------------12------------------------------------------------
 D-----------------------------------------------------------------------------------------------------
 A-----------------------------------------------------------------------------------------------------
 E-----------------------------------------------------------------------------------------------------

 Luego, cuando acaba de cantar, se toca:

 e-------------------------------------------------------------------
 B-------------------------------------------------------------------
 G-------------------------------------------------------------------   ---> 2 veces
 D-5--7-5---7-9-10--9-7---5--7-5---7-9-10---12-12/10-10/9-9/7-7/5-5--
 A-------------------------------------------------------------------
 E-------------------------------------------------------------------

 FIN. Bueno eso es todo, con algo de práctica sale fácil.

 
 !!!! Y RECUERDEN APOYEN EL ROCK NACIONAL !!!!


 Cualquier pedido, sugerencia, corrección escríbanme a rockinyourhead@
Suggest correction
Give kudos to tab author, rate the tab!
1 2 3 4 5
comments
print report bad tab
guest
Wanna post a correction for this tab? Suggest correction