Oops, an error
Loading. Please wait.

Marchate Chords

version 3
version 3

Whole song

by Tremolo
25 views 1 this week
no commentswrite comment
1 2 3 4 5
3 more votes to show rating
add to favorites
launch autoscroll
font size
0
reset
transpose
0
reset
simplify chords
display chords
guitar tuner
×
Best way to learn
"Marchate"
Autoscroll
slow
fast
+/-
esc
set tempo
stop
Aca les mando esta baladita de est banda
del rock bicolor
Como veran el intro no es muy facil, pero si le
ponen ganas facil la sacan, bueno, aca esta;)

Intro:

  G.. 
   1.-----------
   2.-----------
   3.-----------
   4.-----------
   5.-2-3-------
   6.-----------
 
  D - Em - C - G 

   1.-----------
   2.-----------
   3.-----------
   4.-----------
   5.-2-3-------
   6.-----------
 
  D - Em - C - G   
  
 1.-19-19-17-15-19-17-1-15---------------------(15)------15---------15-------15-19-22-20-19-------
 2.------------------------17-15-17--------15------17--15--15-15---15--15---15-------------20-22-20
 3.--------------------------------16-16-17--16------16----------16-------16-----------------------
 4.------------------------------------------------------------------------------------------------
 5.------------------------------------------------------------------------------------------
 6.------------------------------------------------------------------------------------------

  Si en tinieblas te ocultas y me niegas tus culpas, ya no importa lo que digas
  G                    D     Em               C       G       D             Em
  sé que nunca me amarás, como dejan heridas mis dulces ilusiones
          C           G                 D    Em             C
  díficil fue cosechar lo que nunca sembraste
   G    D        Em             C        G   D
  
 1. No te pido que me ames o me olvides quiero que recuerdes cuanto te he querido
    Em     C5          G5          D5     Em    C5             G5           D5
 2.(y) márchate sal ya de mi mente, márchate no vuelvas a verme.
        G5    D5       Em     D5    G5     D5         Em   D5
   (repetir):P

   Punteo           
  
 1.-----------------2-3-7--7---7---7---7-8-10-12-10-8-7-8-7-8-7-5-5------------17-
 2.--------------3-5-----5---5---5---5-----------------------------8-8-7-5-7-8----
 3.--------2-4-5------------------------------------------------------------------
 4.--2-4-5------------------------------------------------------------------------
 5.-5-----------------------------------------------------------------------------
 6.-------------------------------------------------------------------------------
   
  Nunca supistes amarme es mejor que te marches, para que tener el sueño si no será realidad
  G                D    Em               C         G   D             Em         C          G 
  si mi amor no hizo que te embriagues de mi alma para que seguir viajando si este no es mi caminoooo
                 D    Em               C           G    D             Am           C             G D

 (repetir 1,2,2,2)

 Acordes:)
 
   C5= (x) G5= (x) D5= (x)
       (x)     (x)     (x)
       (5)     (x)     (7) 
       (5)     (5)     (7)
       (3)     (5)     (5)
       (x)     (3)     (x) 

 Eso es todo chaus (;P
Suggest correction
Give kudos to tab author, rate the tab!
1 2 3 4 5
comments
print report bad tab
guest
You may want to rate the tab now too:
select rating
Wanna post a correction for this tab? Suggest correction