Oops, an error
Loading. Please wait.

Mujer De Mi Mundo Tab

25 views 1 this week
no commentswrite comment
1 2 3 4 5
3 more votes to show rating
add to favorites
launch autoscroll
font size
0
reset
how to read this tab
guitar tuner
Autoscroll
slow
fast
+/-
esc
set tempo
stop
Help us to improve Ultimate-Guitar.com Take our survey!
×
Trémolo
Mujer de mi mundo

Intro:

e--------------------------------------------
B--------------------------------------------
G-------------------------------------------- ---> 4 veces 
D-2-x-2-x-2-x-2-x-2-x-2-x-2-x-3-x-2-x-2-x-2--
A-2-x-2-x-2-x-2-x-2-x-2-x-2-x-3-x-2-x-2-x-2--
E--------------------------------------------

y luego:

 C5, B5, A5, G5, F#5


E5                 A5     A5 B5 C5 
Como un nevado me estoy deslizando
D5                 G5        B5
Las rocas son tan grandes y duras.
E5                 A5     A5 B5 C5
Ya he perdido todos mis colores
D5                 G5        B5
Ya no brillo como años atrás.
E5                 A5     A5 B5 C5
Unos cuantos metros y habré muerto
D5                 G5        B5
Sin encontrar a alguien que pueda amar.


E5                 A5     A5 B5 C5
Salvaje como un lobo hambriento de tí
D5                 G5        B5
Feroz por no poderte encontrar
E5                 A5     A5 B5 C5
Mujer de mi mundo se que tu existes
D5                 G5        B5
En algún lado de nuestra tierra
E5                 A5     A5 B5 C5
Ya es demasiado prefiero dormir 
D5                 G5        B5
Antes que seguir soñando despierto

1er solo:

e---------------------------------------------------------------------------
B-13b---13p12p10-12---10-12-13-15-15p13p12-12-13---13p12p10-10-12-12p10p8-8-
G---------------------------------------------------------------------------
D---------------------------------------------------------------------------
A---------------------------------------------------------------------------
E---------------------------------------------------------------------------


e--------------------------------------------------------------------------
B-8-10-12-10-12-13-12-13-15b---15p13p12-13---15-13-12-13---10-13-12-13-12--
G--------------------------------------------------------------------------
D--------------------------------------------------------------------------
A--------------------------------------------------------------------------
E--------------------------------------------------------------------------


e---------------------------------------------------------------------
B--13/15-13---15-16b-15p13-15-----------------------------------------
G---------------------------------------------------------------------
D---------------------------------------------------------------------
A---------------------------------------------------------------------
E---------------------------------------------------------------------

PARTE RÁPIDA (TODO ESTA PARTE SE TOCA 2 VECES)

e-17p15p13--17p15p13--17p15p13--17p15p13--17p15p13--17p15p13--17p15p13--17p15p13-
B-----------------------------------------------------------------
G------------------------------------------------------------------
D-------------------------------------------------------------------
A--------------------------------------------------------------------
E-------------------------------------------------------------------


e-15p13p12--15p13p12--15p13p12--15p13p12--15p13p12--15p13p12--15p13p12--15p13p12--
B-----------------------------------------------------------------
G------------------------------------------------------------------
D-------------------------------------------------------------------
A--------------------------------------------------------------------
E-------------------------------------------------------------------


e-13p12p10--13p12p10--13p12p10--13p12p10--13p12p10--13p12p10--13p12p10--13p12p10--
B-----------------------------------------------------------------
G------------------------------------------------------------------
D-------------------------------------------------------------------
A--------------------------------------------------------------------
E-------------------------------------------------------------------


e---------10--13p12p10---------------
B-10h12h13------------13p12p10b------ ---> no muy seguro de esta parte
G------------------------------------
D------------------------------------
A------------------------------------
E------------------------------------


C5                      G5
Y se me hace difícil poderte encontrar
A5                    E5
El sol ha salido y tu aún no llegas
C5                      G5
Quizás no encontraste aun mis huellas
A5                    E5            B5
estoy muriendo sin poderte amar....ohhhhhhhh


FINAL (SOLO 2)


e---------------------------------------
B-8-7-5-3---5-3-1-0---1-0---0---1-0-3-5- --->3 veces 
G-------------------------2-------------
D---------------------------------------
A---------------------------------------
E---------------------------------------

La 4ta vez solo se toca:

e--------------------------------
B-8-7-5-3---5-3-1-0---1-0---0----
G-------------------------2------
D--------------------------------
A--------------------------------
E--------------------------------

y acaba en los acordes: 

 G5, F#5, E5, D5

 G5, F#5, E5, D5, E5
Suggest correction
Give kudos to tab author, rate the tab!
1 2 3 4 5
comments
print report bad tab
guest
You may want to rate the tab now too:
select rating
Wanna post a correction for this tab? Suggest correction