Oops, an error
Loading. Please wait.

Rosas Negras Bass

by Tremolo
46 views 1 this week
no commentswrite comment
1 2 3 4 5
3 more votes to show rating
add to favorites
launch autoscroll
font size
0
reset
guitar tuner
×
Best way to learn
"Rosas Negras"
Autoscroll
slow
fast
+/-
esc
set tempo
stop
		TREMOLO - ROSAS NEGRAS
		======================

Esta va junto a la anterior transcripcion para guitarra

INTRO 1


G|-----------------|
D|*---------------*|
A|*---7-5-5-------*|
E|--5-------3-0-5--|


INTRO 2

G|------------------------|
D|*----------------------*|
A|*-----5---------3-(2)--*|
E|--5-------3---5---------|


VERSOS

G|------------------|
D|*----------------*|
A|*-----5--5-------*|
E|--5--------3-3-3--|

PRECORO:

G|-----------------------|
D|*---------------------*|
A|*-3-------------------*|
E|------3--3-5--5-5------|

G|-----------------------|
D|*---------------------*|
A|*-----------3--3-3--*-*|
E|---3--3---3------------|

G|-----------------------|
D|*---------------------*|
A|*---------------------*|
E|--0---5-5---3-3-3-3----|

G|-----------------------|
D|*---------------------*|
A|*---------------------*|
E|--3-3-3-3---7777-7777--|


INTRO 1

VERSOS

PRECORO

CORO:

G|------------------------|
D|*----------------------*|
A|*-----5---------3-(2)--*|
E|--5-------3---5---------|


SOLO:

G|------------------------|
D|*----------------------*|
A|*-----5---------3-(2)--*|
E|--5-------3---5---------|


PRECORO:

CORO:
Suggest correction
Give kudos to tab author, rate the tab!
1 2 3 4 5
comments
print report bad tab
guest
You may want to rate the tab now too:
select rating
Wanna post a correction for this tab? Suggest correction