Oops, an error
Loading. Please wait.

Rosas Negras Tab

67 views 1 this week
no commentswrite comment
1 2 3 4 5
3 more votes to show rating
add to favorites
launch autoscroll
font size
0
reset
how to read this tab
guitar tuner
Autoscroll
slow
fast
+/-
esc
set tempo
stop
Help us to improve Ultimate-Guitar.com Take our survey!
×
RoSaS NeGras (TreMolO)

para q suene mejor si quieren =P toquen las notas en quintas suena mas
chévere bueno si quieren y si pueden pxXD

INTRO:
e/----5-------8----------5-------3----------3(5)--5---------
B/------5---5----6----------8-------3---3(5)---------5------
G/--------5---------7-----------------4----------------5^---
D/--------------------7--7-------0-----------------------7--
A/----------7----5------------------------------------------
E/----5-----------------------------------------------------

e/----5-----5-8----------5-------3----------3(5)--5---------
B/------5--------6----------8-------3---3(5)---------5------
G/--------5---------7-----------------4----------------5^---
D/--------------------7--7-------0-----------------------7--
A/----------7----5------------------------------------------
E/----5-----------------------------------------------------

Solo

e/------------------------------------------------------
B/------------------------------------------------------
G/----7^-7^-5---5(7)---------5--------------------------
D/------------7---------5-5----5^-----------------5-----
A/-------------------5^-----------7--7^-5(3)-3(5)-------
E/------------------------------------------------------

e/------------------------------------------------------
B/---5--6--6^--5^---------------------------------------
G/----------------7--5----5(9)-----5--7--7^-------------
D/---------------------7------5(7)-------------5--7--7--
A/-----------------------------------------5(7)---------
E/------------------------------------------------------

e/------------------------5-----------------------------
B/--------------------------5-----------------8---------
G/----4^---------------7^-----7^-5----5(7)-7^---7^------
D/---------------------------------7--------------------
A/-------5(7)-5^-5(7)-----------------------------------
E/------------------------------------------------------

e/----------------------
B/----------------------
G/---7^--5--------------
D/----------5(7)--------
A/----------------------
E/----------------------
si el solo esta mal =P comprendan px no tengo guitarra electrica
lo saque con mi acustica =D

ESTROFA:

LA m           RE m      SOL M
   Cuando pasas cerca
LA m           RE m       SOL M
   Golpeas mi corazón
LA m           RE m        SOL M
    No diré que me muero
LA m           RE m    SOL M
    Cuando te ríes

PRECORO:
DO M       SOL M       LA m
se que     no imaginas
SOL M               DO M
algo mas   en amigos
MI M      LA m
que te   acompaña
FA M             SOL M   LA m
a  buscar   otro amor

de nuevo el INTRO

LA m        RE m                SOL M
  Soñare en mi cuarto
LA m             RE m                SOL M
  Con tu imposible amor
LA m            RE m     SOL M
  Rozaré tu pelo
LA m       RE m         SOL M
  Con mi suspiro

PRECORO:
DO M       SOL M       LA m
se que     no imaginas
SOL M               DO M
algo mas   en amigos
MI M      LA m
que te   acompaña
FA M             SOL M   DO M . . . SI m
a  buscar   otro amor

CORO:
LA m     RE m          SOL M                DO M   MI M
  No dire      que mi alma llora por ti cuando     ries
LA m           RE m       SOL M          DO M    MI M
  nena   te hechare   Rosas negras        Después       ( X 2 )

e/----19^-19--17----13-15---12--13---10-12---8--10---
B/---------------------------------------------------
G/---------------------------------------------------
D/---------------------------------------------------
A/---------------------------------------------------
E/---------------------------------------------------

e/---7^--------------10^-10--8------------15---------
B/-------10-8--8(10)-----------10---15-17------------
G/---------------------------------------------------
D/---------------------------------------------------
A/---------------------------------------------------
E/---------------------------------------------------

e/---------15-------15------17(15)----17(15)----17---
B/---15-17----15-17------15--------17--------17------
G/---------------------------------------------------
D/---------------------------------------------------
A/---------------------------------------------------
E/---------------------------------------------------

e/---19-20^-20-19-17-15(17)----------15----15-17^----
B/--------------------------13-15-17----17-----------
G/---------------------------------------------------
D/---------------------------------------------------
A/---------------------------------------------------
E/---------------------------------------------------

e/---15(17)----------------------
B/----------17--13-17--12-15----15^-15^-15^-15^-15^--
G/---------------------------14----------------------
D/---------------------------------------------------
A/---------------------------------------------------
E/---------------------------------------------------


e/---15^-15^-15^--(efecto)--------------------15-12--
B/-------------------------(Rapido)-15^-15-17--------
G/---------------------------------------------------
D/---------------------------------------------------
A/---------------------------------------------------
E/---------------------------------------------------

e/---------15-12-------15-12-------15-12-------15-12-
B/---15-17-------15-17-------15-17-------15-17-------
G/---------------------------------------------------
D/---------------------------------------------------
A/---------------------------------------------------
E/---------------------------------------------------

e/--------15-12-------15-12--------15-12-------------
B/--15-17-------15-17-------15-17--------------------
G/---------------------------------------------------
D/---------------------------------------------------
A/---------------------------------------------------
E/---------------------------------------------------


e/----21^-19^-17^-15^^--
B/----------------------
G/----------------------
D/----------------------
A/----------------------
E/----------------------

PRE coro

coro ( x 2)

Es la primera canción q mando por Internet cualquier cosa
(fallas, ?no entienden?, pedidos, etc., etc.)
escríbanme a mi correo gian_capricornio@
q viva el rock peruano carajooooooooooooooooooooo
Saludos para la gente del 5 ?C? promo 2005 Alipio Ponce =P,
 para la gente de mi barrunto Canada y
para mi amorzote yosselin te quiero mucho =P...
Y voten por esta song pxzzz si les ha vacilado mi tablatura =P.
Suggest correction
Give kudos to tab author, rate the tab!
1 2 3 4 5
comments
print report bad tab
guest
You may want to rate the tab now too:
select rating
Wanna post a correction for this tab? Suggest correction