Oops, an error
Loading. Please wait.

All I Was bass

version 1
version 1

Whole song

Interactive

148 views 1 this week
no commentswrite comment
1 2 3 4 5
1 last vote to show rating
add to favorites
×
Save as Personal and add changes to this tab that will be seen only by you. Learn more ›
×
You can save this tab as Personal to edit and correct it or add notes. All changes will be seen only by you. Learn more »
launch autoscroll
font size
0
reset
guitar tuner
edit
Autoscroll
slow
fast
+/-
esc
set tempo
stop
Song: "All I Was" by Tremonti
Tuning: Db Ab Db Gb
Tabbed by: jjhand

This song only uses 4 strings but Brian Marshall may have used his Sadowsky 5 string. 
I only tabbed it for a 4 string since it works out well this way. Thanks to Gibson1006 
for some of the bass riffs in the pro version that helped. Please rate or comment.

Intro Riff - play 2x
Gb|---------------------------------|-----------------------------|
Db|---------------------------------|-----------------------------|
Ab|-----------6-5-3-5--6--3-5-6-5-3-|-1----1-------0--------1-----|
Db|-0----0--------------------------|-----------0-0---5-3-0---3-0-|

Gb|---------------------------------|----------------------------|
Db|---------------------------------|----------------------------|
Ab|-----------0-0-0-1---0-----------|-1----1------0--------------|
Db|-0----0------------------3---0---|----------0-0---------------|


Verse 1 Riff
Gb|-------------|-----------------|--------------------|---------------------|
Db|-------------|-----------------|--------------------|---------------------|
Ab|-------------|-----------------|-------3-5-3-5------|---------------------|
Db|-0-----------|-3------1--1-----|-0------------------|-3--------1--1-------|

Gb|------------------|----------------|-----------------|--------------------|
Db|------------------|----------------|-----------------|--------------------|
Ab|--------5---------|----------------|-------5---------|-----3--------------|
Db|-0--------0-0-----|-3------1-------|-0-------0-0-----|-3-------1--1/13----|


Chorus - Play Intro Riff 2x


Verse 2 - Play Verse 1 Riff similarly


Chorus 2 - Play Intro Riff 2x again


Bridge to Solo
Gb|-------------|------------|------------|-------------|
Db|-------------|------------|------------|-------------|
Ab|-------------|-6----------|------------|-6-----------|
Db|-0-----------|------------|-0----------|-------------|


Solo Part 1
   
Gb|---------------------------------------------------------|
Db|-0--0--3-1-0---1--1--3-1-0---1--1--3-1-0---1--1--3-1-0---|
Ab|-------------3-------------3-------------3-------------3-|
Db|---------------------------------------------------------|

Gb|---------------------------------------------------------|
Db|-0--0--3-1-0---1--1--3-1-0---1--1--3-1-0-----------------|
Ab|-------------3-------------3-------------3--5-5-5-5-3----|
Db|---------------------------------------------------------|

Gb|---------------------------------------------------------|
Db|-0--0--3-1-0---1--1--3-1-0---1--1--3-1-0---1--1--3-1-0---|
Ab|-------------3-------------3-------------3-------------3-|
Db|---------------------------------------------------------|

Gb|-------------------------------------------------------|
Db|-0--0--3-1-0---1--1--3-1-0---1--1--3-1-0---------------|
Ab|-------------3-------------3-------------3-------------|
Db|-------------------------------------------0---0---0---|

Solo Part 2
Gb|-------------|------------|------------|-------------|
Db|-------------|------------|------------|-------------|
Ab|-------------|------------|------------|-------------|
Db|-12\---------|------------|-12\--------|----------13-|

Solo Part 3
Gb|-------------|------------|------------|---------------|
Db|-------------|------------|------------|---------------|
Ab|-------------|------------|------------|---------------|
Db|-12\---------|------------|-12\--------|-0-------1-1-1-|-(0)-
  (): note is on end of song only


Final Chorus - Play the same Intro Riff

Ending - Play Solo Part 1 and end with Part 3 riffs 


************************************
Key:
| /   slide up
| \   slide down
| h   hammer-on
| p   pull-off
| ~   vibrato
| x   Mute note
| b   Bend

************************************************************************

            
            
Suggest correction
Creating personal tab
Creating personal tab
You can edit any tab online and save it as your Personal.

You can edit, replace or remove any tab part or add personal notes – all changes will be seen only by you.

Personal tabs can be accessed anytime from any device, even offline.
Learn more »
Give kudos to tab author, rate the tab!
1 2 3 4 5
comments
print report bad tab
guest
You may want to rate the tab now too:
select rating
Wanna post a correction for this tab? Suggest correction