Oops, an error
Loading. Please wait.

All That I Got tab

version 1
version 1

Whole song

Interactive

3,652 views 1 this week
no commentswrite comment
1 2 3 4 5
x 3
add to favorites
×
Save as Personal and add changes to this tab that will be seen only by you. Learn more ›
×
You can save this tab as Personal to edit and correct it or add notes. All changes will be seen only by you. Learn more »
launch autoscroll
font size
0
reset
how to read this tab
guitar tuner
edit
Autoscroll
slow
fast
+/-
esc
set tempo
stop
-------------------------------------------------------------------------------
                             All That I Got- Mark Tremonti
-------------------------------------------------------------------------------
Tabbed by: Bradf987
E-mail: bradf987@gmail.com

Tuning: Open B Tuning. (B,F#,B,F#,B,B) 4/4 Time. 120 BPM,
or Sub divided into 240 BPM.

Im Not sure this tab is accurate. I listened to the song,
 and tabbed it by ear. Post any corrections in the comments,
 and I apologize if I made any mistakes!
-Brad


Intro
B|---------------------------------------------------------------------------|
B|---------------------------------------------------------------------------|
F|---------------------------------------------------------------------------|
B|----------------------0-1-----------------0-1-----------------0-1----------|
F|--------------0-3-0---------------0-3-0---------------0-3-0----------------|
B|-12/----0-1-----------------0-1-----------------0-1------------------1-1---|
 Play this four times.


B|------0--------------------------------------------------------------------|
B|------0--------------------------------------------------------------------|
F|------0--------------------------------------------------------------------|
B|------0--------------------------------------------------------------------|
F|------0--------------------------------------------------------------------|
B|------0---------------------------------12-10-13-12------------!-----------|
( Let ring for 8 beats...   (Press your fingers on the frets, do not strum.)



Verse
B|---------------------------------------------------------------------------|
B|---------------------------------------------------------------------------|
F|---------------------------------------------------------------------------|
B|---------------------------------------------------------------------------|
F|---------------------------------------------------------------------------|
B|-12-121212-1213----12-121212-1213----12-121212-1213----12-121212-1213------|
   pm pmpmpm pmpm    pm pmpmpm pmpm    pm pmpmpm pmpm    pm pmpmpm pmpm

B|---------------------------------------------------------------------------|
B|---------------------------------------------------------------------------|
F|---------------------------------------------------------------------------|
B|---------------------------------------------------------------------------|
F|-------------------------------------0-0-00-0----0-0-00-0------------------|
B|--12-151215-1215----12-121412-1213---0-0-00-0----0-0-00-0------------------|
    pm pmpmpm pmpm    pm pmpmpm pmpmp  pm pmpmpm   pm pmpmpm
(Play all of this twice.)



Pre-Chorus. You can figure out the strumming pattern, its not hard. Play pre chorus twice.

B|---0----0-----x---0----0-----0--0-------0---0--x---------------------------|
B|---0----0-----x---0----0-----0--0-------0---0--x---------------------------|
F|---0----0-----x---0----0-----x----------x---x--x---------------------------|
B|---12---10----x---10---8-----8/10---10--10/12--x---------------------------|
F|---12---10----x---10---8---------------------------------------------------|
B|---12---10----x---10---8---------------------------------------------------|

Then...
B|---------------------------------------------------------------------------|
B|---------------------------------------------------------------------------|
F|---------------------------------------------------------------------------|
B|---------------------------------------------------------------------------|
F|---------------------------------------------------------------------------|
B|---------000--10-12-13--000-10--12-1313--000--10-12-13----1--1-------------|
(Second  time, do NOT play this^^^^)


Chorus. (You can figure out strumming.) Play twice!

B|---0-----------0------------0------------0---------------------------------|
B|---0-----------0------------0------------0---------------------------------|
F|---0-----------0------------0------------0---------------------------------|
B|---8-----------7------------5------------5---------------------------------|
F|---8-----------5------------3------------5------3--------------------------|
B|---8-----------0------------0------------5------3--------------------------|
"Suddenly.."   "Got!"    "Time..."      "Apart!"


Now Play the Verse riff again (as instructed) then Pre-chorus, and Chorus.) That takes 
us to the bridge.


Bridge.
B|---------------------------------------------------------------------------|
B|---------------------------------------------------------------------------|
F|---------------------------------------------------------------------------|
B|---------------------------------------------------------------------------|
F|----------------10-12-----------------------10-12----12-15-----------------|
B|--0-00-0-10-12----------13----0-00-0-10-12-------13---------13-------------|
Play this three times. 


Now the fun part.
B|---------------------0x-----------------------------------------------1x---|
B|---------------------0x-----------------------------------------------1x---|
F|---------------------0x-----------------------------------------------0x---|
B|---------------------0x-----------------------------------------------0x---|
F|---------------------0x-----------------------------------------------0x---|
B|-000-000--0-0-0-0-0--0x---000-000--0-0-0--33110---000-000--0-0-0-0-0--0x---|
   ... ...                  ... ...          -t-    ... ...
Tremolo pick these triplets.


B|----------------------------------------------3x---------------------------|
B|----------------------------------------------3x---------------------------|
F|----------------------------------------------0x---------------------------|
B|----------------------------------------------0x---------------------------|
F|----------------------------------------------0x---------------------------|
B|--000-000--0-0-0--33110---000-000--0-0-0-0-0--0x--000-000--0-0-0--33110----|
    ... ...         -t-     ... ...                 ... ...          -t-


B|---------------------8x----------------------------------------------------|
B|---------------------8x----------------------------------------------------|
F|---------------------0x----------------------------------------------------|
B|---------------------0x----------------------------------------------------|
F|---------------------0x----------------------------------------------------|
B|-000-000--0-0-0-0-0--0x---000-000-0-0-0-0-0-0-0-0-0~~~---------------------|
   ... ...                  ... ...


B|---------------------------------------------------------------------------|
B|---------------------------------------------------------------------------|
F|---------------------------------------------------------------------------|
B|---------------------------------------------------------------------------|
F|-----------666666666666---------333333333333---------111111111111---------1|
B|--0-0-0-0---------------0-0-0-0--------------0-0-0-0--------------0-0-0-0-3|
(Strum hard!)                                                Let last note ring, then do 
a pick slide.


Play the entire chorus twice, then the intro riff untll the song ends.  

Again, I figured all of this by ear. I'm sorry if there are any mistakes. The song has 
been out
 for 12 hours. I tried the best I could, and I wrote down what I heard. Post any 
corrections in the comments.
************************************

| /   slide up
| \   slide down
| !   pick scrape
| ... triplet
| -t- tremolo pick
| h   hammer-on
| p   pull-off
| ~   vibrato
| +   harmonic
| x   Mute note
| b   Bend
| pb  Pre-bend
| br  Bend release
| pbr Pre-bend release
| brb Bend release bend

************************************

            
            
Suggest correction
Creating personal tab
Creating personal tab
You can edit any tab online and save it as your Personal.

You can edit, replace or remove any tab part or add personal notes – all changes will be seen only by you.

Personal tabs can be accessed anytime from any device, even offline.
Learn more »
Give kudos to tab author, rate the tab!
1 2 3 4 5
comments
print report bad tab
guest
You may want to rate the tab now too:
select rating
Wanna post a correction for this tab? Suggest correction