Oops, an error
Loading. Please wait.

Brains Tab

version 2
version 2

Whole song

Interactive

560 views 1 this week
1 commentread comment
1 2 3 4 5
1 last vote to show rating
add to favorites
launch autoscroll
font size
0
reset
how to read this tab
guitar tuner
Autoscroll
slow
fast
+/-
esc
set tempo
stop
Author
Difficulty
Tuning
intermediate
B F# B E G# C#
Track: Brains
Artist: Tremonti
Album: All I Was
Tuning: B F# B F# B B (Open B5)

Intro:
|-----------------------------------0--------|
|-----------------------------------0--------|
|------0------------------------0------------|
|-------------------0------------------------|
|---11-----------11----------11-----------11-|
|-0----------000---------000------------0----|

|-------------------------------------0--------|
|-------------------------------------0--------|
|--------0------------------------0------------|
|---------------------0------------------------|
|-----11-----------11----------11-----------11-|
|-000----------000---------000------------0----|

Pre-Verse:
|-------------------------------------------------------------|
|-------------------------------------------------------------|
|-------------------------------------------------------------|
|------------------------------1--------------------------1-1-|
|---------------------------------------------------------1-1-|
|100-0-100-0-100-0-100-0-0-1-3---100-0-100-0-100-0-100-0--1-1-|
  ** *  ** *  ** *  ** *          ** *  ** *  ** *  ** *

|----------------------------------------------------------|
|----------------------------------------------------------|
|----------------------------------------------------------|
|----------------------------1-----------------------------|
|----------------------------------------------------------|
|100-0-100-0-100-0-100-0-1-3---100-0-100-0-100-0-100—0-12\-|
  ** *  ** *  ** *  ** *        ** *  ** *  ** *  ** *

|-------------------------------------------------------------|
|-------------------------------------------------------------|
|-------------------------------------------------------------|
|------------------------------1--------------------------1-1-|
|---------------------------------------------------------1-1-|
|100-0-100-0-100-0-100-0-0-1-3---100-0-100-0-100-0-100-0--1-1-|
  ** *  ** *  ** *  ** *          ** *  ** *  ** *  ** *

|-----------------------------------------------------------|
|-----------------------------------------------------------|
|-----------------------------------------------------------|
|------------------------------1--------------------------1-|
|---------------------------------------------------------1-|
|100-0-100-0-100-0-100-0-0-1-3---100-0-100-0-100-0-100-0--1-|
  ** *  ** *  ** *  ** *          ** *  ** *  ** *  ** *

|----0----0-0-0-0--0--0--0----------|
|----0----0-0-0-0--0--0--0----------|
|----12--12121212-12-11-11----------|
|-0--0----0-0-0-0--0--0--0---00-8-7-|
|-0--12--12121212-12-11-11---00-8-7-|
|-0--0----0-0-0-0--0--0--0---00-8-7-|
  *                          **

|----0----0-0-0-0--0--0--0----------|
|----0----0-0-0-0--0--0--0----------|
|----12--12121212-12-11-11----------|
|-0--0----0-0-0-0--0--0--0---00-8-7-|
|-0--12--12121212-12-11-11---00-8-7-|
|-0--0----0-0-0-0--0--0--0---00-8-7-|
  *                          **
|----0----0-0-0-0--0--0--0----------|
|----0----0-0-0-0--0--0--0----------|
|----12--12121212-12-11-11----------|
|-0--0----0-0-0-0--0--0--0---00-8-7-|
|-0--12--12121212-12-11-11---00-8-7-|
|-0--0----0-0-0-0--0--0--0---00-8-7-|
  *                          **
|-------------------------------|
|-------11-12-------11-12-------|
|-11-12-------11-12-------11-12-|
|-------------------------------|
|-------------------------------|
|-------------------------------|

|----0----0-0-0-0--0--0--0----------|
|----0----0-0-0-0--0--0--0----------|
|----12--12121212-12-11-11----------|
|-0--0----0-0-0-0--0--0--0---00-8-7-|
|-0--12--12121212-12-11-11---00-8-7-|
|-0--0----0-0-0-0--0--0--0---00-8-7-|
  *                          **
|-------------------------------|
|-------11-12-------11-12-------|
|-11-12-------11-12-------11-12-|
|-------------------------------|
|-------------------------------|
|-------------------------------|

|----0----0-0-0-0--0--0--0----------|
|----0----0-0-0-0--0--0--0----------|
|----12--12121212-12-11-11----------|
|-0--0----0-0-0-0--0--0--0---00-8-7-|
|-0--12--12121212-12-11-11---00-8-7-|
|-0--0----0-0-0-0--0--0--0---00-8-7-|
  *                          **

|-------------------------------------------------------|
|-------11-12-------11-12-------11-12-------11-12-17b19-|
|-11-12-------11-12-------11-12-------11-12-------------|
|-------------------------------------------------------|
|-------------------------------------------------------|
|-------------------------------------------------------|

Verse:
|----000----00000----------0--0--0-----0--0--0-------|
|----000----00000----------0--0--0-----0--0--0-------|
|----555----55555----------0--0--0-----0--0--0-------|
|-0--000-1--00000-1-3-0-11-11-11-11-10-10-10-10--3-1-|
|-0--555-1--55555-1-3-0-7--7--7--7--6--6--6--6---3-1-|
|-0--000-1--00000-1-3-0—7--7—-7—-7--6--6--6--6-003-1-|
                                               **  

|----000----00000----------0--0--0-----0--0--0-------|
|----000----00000----------0--0--0-----0--0--0-------|
|----555----55555----------0--0--0-----0--0--0-------|
|-0--000-1--00000-1-3-0-11-11-11-11-10-10-10-10--3-1-|
|-0--555-1--55555-1-3-0-7--7--7--7--6--6--6--6---3-1-|
|-0--000-1--00000-1-3-0—7--7—-7—-7--6--6--6--6-003-1-|
                                               **
Pre-Chorus:
|-------------------------------------------------------------|
|-------------------------------------------------------------|
|-------------------------------------------------------------|
|------------------------------1--------------------------1-1-|
|---------------------------------------------------------1-1-|
|100-0-100-0-100-0-100-0-0-1-3---100-0-100-0-100-0-100-0--1-1-|
  ** *  ** *  ** *  ** *          ** *  ** *  ** *  ** *

|---------------------------------------------------------|
|---------------------------------------------------------|
|---------------------------------------------------------|
|----------------------------1----------------------------|
|---------------------------------------------------------|
|100-0-100-0-100-0-100-0-1-3---100-0-100-0-100-0-100—0-1\-|
  ** *  ** *  ** *  ** *          ** *  ** *  ** *  ** *

Chorus:
|----00000-----00000-----00000—----00000--------|
|----00000-----00000-----00000-----00000--------|
|----55555-----00000--5--55555--3--33333--------|
|-0--00000--3--33333--5--55555--3--33333--005-3-|
|-0--55555--3--33333--3--33333--1--11111--005-3-|
|-0--00000--3--33333----------------------005-3-|
                                          **
|----00000-----00000-----00000—----00000--------|
|----00000-----00000-----00000-----00000--------|
|----55555-----00000--5--55555--3--33333--------|
|-0--00000--3--33333--5--55555--3--33333--005-3-|
|-0--55555--3--33333--3--33333--1--11111--005-3-|
|-0--00000--3--33333----------------------005-3-|
                                          **

Pre-Verse:
|----0----0-0-0-0--0--0--0----------|
|----0----0-0-0-0--0--0--0----------|
|----12--12121212-12-11-11----------|
|-0--0----0-0-0-0--0--0--0---00-8-7-|
|-0--12--12121212-12-11-11---00-8-7-|
|-0--0----0-0-0-0--0--0--0---00-8-7-|
  *                          **

|----0----0-0-0-0--0--0--0----------|
|----0----0-0-0-0--0--0--0----------|
|----12--12121212-12-11-11----------|
|-0--0----0-0-0-0--0--0--0---00-8-7-|
|-0--12--12121212-12-11-11---00-8-7-|
|-0--0----0-0-0-0--0--0--0---00-8-7-|
  *                          **

|-------------------------------------------------------|
|-------11-12-------11-12-------11-12-------11-12-17b19-|
|-11-12-------11-12-------11-12-------11-12-------------|
|-------------------------------------------------------|
|-------------------------------------------------------|
|-------------------------------------------------------|

Verse:
|----000----00000----------0--0--0-----0--0--0-------|
|----000----00000----------0--0--0-----0--0--0-------|
|----555----55555----------0--0--0-----0--0--0-------|
|-0--000-1--00000-1-3-0-11-11-11-11-10-10-10-10--3-1-|
|-0--555-1--55555-1-3-0-7--7--7--7--6--6--6--6---3-1-|
|-0--000-1--00000-1-3-0—7--7—-7—-7--6--6--6--6-003-1-|
                                               **  

|----000----00000----------0--0--0-----0--0--0-------|
|----000----00000----------0--0--0-----0--0--0-------|
|----555----55555----------0--0--0-----0--0--0-------|
|-0--000-1--00000-1-3-0-11-11-11-11-10-10-10-10--3-1-|
|-0--555-1--55555-1-3-0-7--7--7--7--6--6--6--6---3-1-|
|-0--000-1--00000-1-3-0—7--7—-7—-7--6--6--6--6-003-1-|
                                               **
Pre-Chorus:
|-------------------------------------------------------------|
|-------------------------------------------------------------|
|-------------------------------------------------------------|
|------------------------------1--------------------------1-1-|
|---------------------------------------------------------1-1-|
|100-0-100-0-100-0-100-0-0-1-3---100-0-100-0-100-0-100-0--1-1-|
  ** *  ** *  ** *  ** *          ** *  ** *  ** *  ** *

|---------------------------------------------------------|
|---------------------------------------------------------|
|---------------------------------------------------------|
|----------------------------1----------------------------|
|---------------------------------------------------------|
|100-0-100-0-100-0-100-0-1-3---100-0-100-0-100-0-100—0-1\-|
  ** *  ** *  ** *  ** *          ** *  ** *  ** *  ** *

Chorus:
|----00000-----00000-----00000—----00000--------|
|----00000-----00000-----00000-----00000--------|
|----55555-----00000--5--55555--3--33333--------|
|-0--00000--3--33333--5--55555--3--33333--005-3-|
|-0--55555--3--33333--3--33333--1--11111--005-3-|
|-0--00000--3--33333----------------------005-3-|
                                          **

|----00000-----00000-----00000—----00000--------|
|----00000-----00000-----00000-----00000--------|
|----55555-----00000--5--55555--3--33333--------|
|-0--00000--3--33333--5--55555--3--33333--005-3-|
|-0--55555--3--33333--3--33333--1--11111--005-3-|
|-0--00000--3--33333----------------------005-3-|
                                          **
Bridge:
|-00000--00000--00000-----|
|-00000--00000--00000-----|
|-00000--55555--00000-----|
|-00000--55555--33333-222-|
|-00000--33333--33333-222-|
|-00000---------33333-222-|

|--------------------|
|--------------------|
|-8-7-5------3-5b7r5-|
|-------7------------|
|---------5----------|
|--------------------|

|-------------------------|
|-------------------------|
|-8-7-5------3-5b7r5------|
|-------7------------5s8~-|
|---------5---------------|
|-------------------------|

|-00000--00000--000-------00000-|
|-00000--00000--000-------00000-|
|-33333--00000--000-------55555-|
|-33333--55555--333-2-5-0-00000-|
|-11111--55555--333-2-3-0-55555-|
|--------55555--333-2-2-0-00000-|

|-00000--00000--000-------00000-|
|-00000--00000--000-------00000-|
|-33333--00000--000-------55555-|
|-33333--55555--333-2-5-0-00000-|
|-11111--55555--333-2-3-0-55555-|
|--------55555--333-2-2-0-00000-|

|-00000--00000-|
|-00000--00000-|
|-33333--00000-|
|-33333--55555-|
|-11111--55555-|
|--------55555-|

Chorus:
|----00000-----00000-----00000—----00000--------|
|----00000-----00000-----00000-----00000--------|
|----55555-----00000--5--55555--3--33333--------|
|-0--00000--3--33333--5--55555--3--33333--005-3-|
|-0--55555--3--33333--3--33333--1--11111--005-3-|
|-0--00000--3--33333----------------------005-3-|
                                          **

|----00000-----00000-----00000—----00000--------|
|----00000-----00000-----00000-----00000--------|
|----55555-----00000--5--55555--3--33333--------|
|-0--00000--3--33333--5--55555--3--33333--005-3-|
|-0--55555--3--33333--3--33333--1--11111--005-3-|
|-0--00000--3--33333----------------------005-3-|
                                          **
Solo:
|-------------------------------------------------------------------------|
|-------------------------------------------------------------------------|
|-5/7/8/10/12\10\8/10\8-8-8\7/8-8-8\7\5----5h7p5h7-8p7h8/13-12-13-10-0-/19|
|-x-x-x-x--x---x-x--x-x-x-x-x-x-x-x-x-x—7~--------------------------------|
|-5/7/8/10/12\10\8/10\8-8-8\7/8-8-8\7\5-----------------------------------|
|-------------------------------------------------------------------------|

|----------------------------------------------|
|-22-------20-------19-------17-------15----14-|
|----19-17----17-15----15-13----13-12----12----|
|----------------------------------------------|
|----------------------------------------------|
|----------------------------------------------|

|-----------------------------------------------------------------------------------|
|-7h8p7--7h8p7--7h8p7-8h10h12p10p8-7h8h10p8p7-8h10h12p10p8-7h8h10p8p7---------------|
|------10-----10------------------------------------------------------10-7-10-7-7ph-|
|-----------------------------------------------------------------------------------|
|-----------------------------------------------------------------------------------|
|-----------------------------------------------------------------------------------|

|-------------------------|
|------------(7)----------|
|-(5)-(7)-------(7)-------|
|---------(5)------(7)----|
|---------------------(7)-|
|-------------------------|

Outro:
|-------------------------------------------------------------|
|-------------------------------------------------------------|
|-------------------------------------------------------------|
|------------------------------1--------------------------1-1-|
|---------------------------------------------------------1-1-|
|100-0-100-0-100-0-100-0-0-1-3---100-0-100-0-100-0-100-0--1-1-|
  ** *  ** *  ** *  ** *          ** *  ** *  ** *  ** *
|------------------------------------------------------------------|
|------------------------------------------------------------------|
|------------------------------------------------------------------|
|------------------------------1-----------------1-----------------|
|--------------------------------------------------3p0---3p0-------|
|100-0-100-0-100-0-100-0-0-1-3---100-0-100-0-100-------2-----3-1-0-|
  ** *  ** *  ** *  ** *          ** *  ** * ***

h - hammer on
p - pull off
ph - pinch harmonic
()- artificial harmonic
* - palm mute

Suggest correction
Give kudos to tab author, rate the tab!
1 2 3 4 5
comments
print report bad tab
1 comment total.
0 reply
Gibson1006 1,045 Aug 01, 2014 11:38 AM

Looks very accurate to me!
I think I played it exactly like this, when I once learned it by ear myself ^^

guest
You may want to rate the tab now too:
select rating
Wanna post a correction for this tab? Suggest correction