Oops, an error
Loading. Please wait.

Catching Fire Tab

version 1
version 1

Whole song

  • Tuning Drop C#. Album version.

Interactive

61 views 1 this week
no commentswrite comment
1 2 3 4 5
3 more votes to show rating
add to favorites
launch autoscroll
font size
0
reset
how to read this tab
guitar tuner
Autoscroll
slow
fast
+/-
esc
set tempo
stop
Help us to improve Ultimate-Guitar.com Take our survey!
×
Author
Difficulty
Tuning
intermediate
C# G# C# F# A# D#
About this tab version
Tuning Drop C#. Album version. Was this info helpful? Yes No
Catching Fire--Credit to amerijckbeheerder 619. Previously posted a similar version

Intro is played bending 5th fret 5th string and then play 6th fret.


Main Riff
eb|-----------------------------------------------------------------------|
Bb|-----------------------------------------------------------------------|
Gb|-----------------------------------------------------------------------|
Db|-----------------------------------------------------------------------|x4
Ab|----10---9-----6-----3---6\5------------10---9-----6-----3---6\5-------|
Db|--0----0----0-----0-0---0-----0-0-0--0----0----0----0-0---0-----0-0--0-|

eb|-------------------------------------|
Bb|-------------------------------------|
Gb|-------------------------------------|
Db|-------------------------------------|
Ab|----10---9--1-1-1-1-x-x--1-1-1-1-x-x-| 
Db|--0----0----1-1-1-1-x-x--1-1-1-1-x-x-| 

eb|-----------------------------------------------------------------------|
Bb|-----------------------------------------------------------------------|
Gb|-----------------------------------------------------------------------|
Db|-----------------------------------------------------------------------|x4
Ab|----10---9-----6-----3---6\5------------10---9-----6-----3---6\5-------|
Db|--0----0----0-----0-0---0-----0-0-0--0----0----0----0-0---0-----0-0--0-|

eb|-------------------------------------------------|
Bb|-------------------------------------------------|
Gb|-------------------------------------------------|
Db|-------------------------------------------------|
Ab|----10---9--1-1-1-1-x-x--13-13-13-13-x-x-13-13-13|
Db|--0----0----1-1-1-1-x-x--13-13-13-13-x-x-13-13-13|


Chorus
-strumming not shown
eb|--------------------------------------|
Bb|--------------------------------------|
Gb|---------------5---------------5---3--|
Db|--7----8-------5------7---8----3---3--|x2
Ab|--5----5-------3------5---5----3---1--|
Db|--0----0--------------0---0----3------|


eb|-----------------------------------------------------------------------|
Bb|-----------------------------------------------------------------------|
Gb|-----------------------------------------------------------------------|
Db|-----------------------------------------------------------------------|
Ab|----10---9-----6-----3---6\5------------10---9-----6----3---6\5--------|
Db|--0----0----0-----0-0---0-----0-0-0--0----0----0----0-0---0-----0-0--0-|


eb|------------------------------------------------------------------------|
Bb|------------------------------------------------------------------------|
Gb|------------------------------------------------------------------------|
Db|------------------------------------------------------------------------|
Ab|----10---9-----6-----3---6\5------------10---9---1-1-1-x-x-1-1-1--10---9|
Db|--0----0----0-----0-0---0-----0-0-0--0-----0-----1-1-1-x-x-1-1-1-0----0-|

        *Pause for Bass*


eb|-----------------------------------------------------------------------|
Bb|-----------------------------------------------------------------------|
Gb|-----------------------------------------------------------------------|
Db|-----------------------------------------------------------------------|
Ab|----10---9-----6-----3---6\5------------10---9-----6----3---6\5--------|
Db|--0----0----0-----0-0---0-----0-0-0--0----0----0----0-0---0-----0-0--0-|

eb|---------------------------------------------------------------------|
Bb|---------------------------------------------------------------------|
Gb|---------------------------------------------------------------------|
Db|---------------------------------------------------------------------|
Ab|----10---9-----6-----3---6\5------------10---9---1-1-1-x-x-1-1-1-----|
Db|--0----0----0-----0-0---0-----0-0-0--0-----0-----1-1-1-x-x-1-1-1-0v--|




eb|----------------------------------------------------------|
Bb|----------------------------------------------------------|
Gb|----------------------------------------------------------|
Db|----------------------------------------------------------|
Ab|--6-----3---6\5------------10---9-----6----3---6\5--------|
Db|-----0-0---0-----0-0-0--0----0----0----0-0---0-----0-0--0-|


eb|------------------------------------------------------------------------------|
Bb|------------------------------------------------------------------------------|
Gb|------------------------------------------------------------------------------|
Db|------------------------------------------------------------------------------|
Ab|----10---9-----6-----3---6\5------------10---9---1-1-1-x--13-13-13-x-13-13-13|
Db|--0----0----0-----0-0---0-----0-0-0--0-----0-----1-1-1-x--13-13-13-x-13-13-13|

Chorus
-strumming not shown
eb|--------------------------------------|
Bb|--------------------------------------|
Gb|---------------5---------------5---3--|
Db|--7----8-------5------7---8----3---3--|x2
Ab|--5----5-------3------5---5----3---1--|
Db|--0----0--------------0---0----3------|


eb|----------------------------------------------------------10-----10-------------|
Bb|-------------------------------------------------------------10-----10----------|
Gb|-----------------------------------------------------------------------10-------|
Db|--------------------------------------------------------------------------------|x2
Ab|--------------------------------------------------------------------------------|
Db|--0-0--7-7--6-6--2-2--5-5--1-1--4-4--1-1--0-0--7-7--6-6-------------------------|
     . .  . .  . .  . .       . .  . .  . .  . .  
eb|--------------------------------------------------|
Bb|--------------------------------------------------|
Gb|--------------------------------------------------|
Db|--------------------------------------------------|x2
Ab|--------------------------------------------------|
Db|--0-0--7-7--6-6--2-2--5-5--1-1--4-4--1-1----------|

eb|----------------------------------------------------------------|
Bb|----------------------------------------------------------------|
Gb|----------------------------------------------------------------|
Db|------------------------------------------------------------5---|
Ab|------------------------------------------------------------5---|
Db|-0-0--7-7--6-6--2-2--5-5--1-1--4-4--1-1-0-0--7-7--6-6--0-0--5---|


eb|-----------------------------------------------------------------|
Bb|-----------------------------------------------------------------|
Gb|-----------------------------------------------------------------|
Db|-----------------------------------------------------------------|x2
Ab|------7---6---2---5---1---4---1-------7---6---2---5---1---4-3-1--|
Db|-0-0--7-0-6-0-2-0-5-0-1-0-4-0-1--0-0--7-0-6-0-2-0-5-0-1-0-4-3-1--|

eb|------------------------------------------------|
Bb|------------------------------------------------|
Gb|------------------------------------------------|
Db|------------------------------------------------|x4
Ab|------------------------------------------------|
Db|-12--10-8~--7-8-10~--8-7-8-7-5-7-8-7-5--3-5-0---|


Chorus
-strumming not shown
eb|--------------------------------------|
Bb|--------------------------------------|
Gb|---------------5---------------5---3--|
Db|--7----8-------5------7---8----3---3--|x2
Ab|--5----5-------3------5---5----3---1--|
Db|--0----0--------------0---0----3------|

eb|-----------------------------------------------------------------------|
Bb|-----------------------------------------------------------------------|
Gb|-----------------------------------------------------------------------|
Db|-----------------------------------------------------------------------|
Ab|----10---9-----6-----3---6\5------------10---9-----6----3---6\5--------|
Db|--0----0----0-----0-0---0-----0-0-0--0----0----0----0-0---0-----0-0--0-|

eb|-------------------------------------------------------------------|
Bb|-------------------------------------------------------------------|
Gb|-------------------------------------------------------------------|
Db|-------------------------------------------------------------------|
Ab|----10---9-----6-----3---6\5------------10---9---1-1-1-x-x-1-1-1---|
Db|--0----0----0-----0-0---0-----0-0-0--0-----0-----1-1-1-x-x-1-1-1---|

eb|-----------------------------------------------------------------------|
Bb|-----------------------------------------------------------------------|
Gb|-----------------------------------------------------------------------|
Db|-----------------------------------------------------------------------|
Ab|----10---9-----6-----3---6\5------------10---9-----6----3---6\5--------|
Db|--0----0----0-----0-0---0-----0-0-0--0----0----0----0-0---0-----0-0--0-|



eb|-----------------------------------------------------------------------|
Bb|-----------------------------------------------------------------------|
Gb|-----------------------------------------------------------------------|
Db|-----------------------------------------------------------------------|
Ab|----10---9-----6-----3---6\5------------10---9---1-1-1-x-x-13-13-13-13-|
Db|--0----0----0-----0-0---0-----0-0-0--0-----0-----1-1-1-x-x-13-13-13-13-|

Outro riff
eb|------------------------------------------------|
Bb|------------------------------------------------|
Gb|------------------------------------------------|
Db|------------------------------------------------|x4
Ab|------------------------------------------------|
Db|-12--10-8~--7-8-10~--8-7-8-7-5-7-8-7-5--3-5-0---|


Suggest correction
Give kudos to tab author, rate the tab!
1 2 3 4 5
comments
print report bad tab
guest
You may want to rate the tab now too:
select rating
Wanna post a correction for this tab? Suggest correction