Oops, an error
Loading. Please wait.

Catching Fire Tab

version 1
version 1

Whole song

Interactive

1,988 views 9 this week
1 commentread comment
1 2 3 4 5
x 4
add to favorites
launch autoscroll
font size
0
reset
how to read this tab
guitar tuner
×
Best way to learn
"Catching Fire"
Autoscroll
slow
fast
+/-
esc
set tempo
stop
Author
Difficulty
Tuning
  follow
intermediate
C# F# B E G# C#
Artist: Tremonti
Album: Dust (2016)
Track: Catching Fire
Tuning: C# Standard (1 1/2 step down)

After watching one of Tremonti's live gigs this weekend I spotted that they actually play this song in -
- C# Standard. There are also minor differences in chords and rhythmic notes. 

[Intro / Main Riff]

During the intro they play 2 notes on the 5th string, fret 7 and 8. If you listen to the track you - 
- can hear the bends and the transition between the two.

C#|------------------------------------------------------------------------------------|
G#|------------------------------------------------------------------------------------|
E |------------------------------------------------------------------------------------|
B |------------------------------------------------------------------------------------|
F#|----12---11-----8-----5---8\7----------12---11----8-----5---8\7----------12---11----|
C#|--0----0----0-----0-0---0-----0-0--0-0----0----0----0-0---0-----0-0--0-0----0----0--|
PM   *    *    *     * *   *     *    * *    *    *    * *   *     *    * *    *    *

C#|-------------------------------------------------------------------------------------------------|
G#|-------------------------------------------------------------------------------------------------|
E |-------------------------------------------------------------------------------------------------|
B |-----------------------------------------------------------------------3-3-3-3-x-x--3-3-3-3-x-x--|
F#|--8-----5---8\7----------12---11----8-----5---8\7----------12---11-----3-3-3-3-x-x--3-3-3-3-x-x--|
C#|----0-0---0-----0-0--0-0----0----0----0-0---0-----0-0--0-0----0----0---1-1-1-1-x-x--1-1-1-1-x-x--|
PM     * *   *     *    * *    *    *    * *   *     *    * *    *    *

C#|------------------------------------------------------------------------------------|
G#|------------------------------------------------------------------------------------|
E |------------------------------------------------------------------------------------|
B |------------------------------------------------------------------------------------|
F#|----12---11-----8-----5---8\7----------12---11----8-----5---8\7----------12---11----|
C#|--0----0----0-----0-0---0-----0-0--0-0----0----0----0-0---0-----0-0--0-0----0----0--|
PM   *    *    *     * *   *     *    * *    *    *    * *   *     *    * *    *    *

C#|--------------------------------------------------------------------------------------------------|
G#|--------------------------------------------------------------------------------------------------|
E |--------------------------------------------------------------------------------------------------|
B |-----------------------------------------------------------------------3-3-3-3-x-x--15-15-15-15\--|
F#|--8-----5---8\7----------12---11----8-----5---8\7----------12---11-----3-3-3-3-x-x--15-15-15-15\--|
C#|----0-0---0-----0-0--0-0----0----0----0-0---0-----0-0--0-0----0----0---1-1-1-1-x-x--13-13-13-13\--|
PM     * *   *     *    * *    *    *    * *   *     *    * *    *    *

[Chorus 1]

C#|-------------------------------------------------------------------|
G#|------------------------------7----7----7--7--7-7-7-7--7-7-7-7-----|
E |--9----9--9-9-----------------7----7----7--7--7-7-7-7--7-7-7-7-----|
G |--9----9--9-9/10--10-10-10----7----7----7--7--7-7-7-7--7-7-7-7-----|
F#|--7----7--7-7-7---7--7--7-----5----5----5--5--5-5-5-5--5-5-5-5-----|
C#|--0----0--0-0-0---0--0--0------------------------------------------|

C#|-------------------------------------------------------------------|
G#|------------------------------7----7----7--------------------------|
E |--9----9--9-9-----------------7----7----7--7-7--5--5~--------------|
G |--9----9--9-9/10--10-10-10----7----7----7--7-7--5--5~--------------|
F#|--7----7--7-7-7---7--7--7-----5----5----5--5-5--3--3~--------------|
C#|--0----0--0-0-0---0--0--0------------------------------------------|


C#|-------------------------------------------------------------------|
G#|------------------------------7----7----7--7--7-7-7-7--7-7-7-7-----|
E |--9----9--9-9-----------------7----7----7--7--7-7-7-7--7-7-7-7-----|
G |--9----9--9-9/10--10-10-10----7----7----7--7--7-7-7-7--7-7-7-7-----|
F#|--7----7--7-7-7---7--7--7-----5----5----5--5--5-5-5-5--5-5-5-5-----|
C#|--0----0--0-0-0---0--0--0------------------------------------------|

C#|-------------------------------------------------------------------|
G#|------------------------------7----7----7--------------------------|
E |--9----9--9-9-----------------7----7----7--7-7---------------------|
G |--9----9--9-9/10--10-10-10----7----7----7--7-7--7--7~--------------|
F#|--7----7--7-7-7---7--7--7-----5----5----5--5-5--5--5~---12---11----|
C#|--0----0--0-0-0---0--0--0----------------------------------0----0--|
PM                                                            *    *

[Main Riff]

C#|---------------------------------------------------------------------------------------------|
G#|---------------------------------------------------------------------------------------------|
E |---------------------------------------------------------------------------------------------|
B |-----------------------------------------------------------------------3-3-3-3-x-x--3-3-3-3--|
F#|--8-----5---8\7----------12---11----8-----5---8\7----------12---11-----3-3-3-3-x-x--3-3-3-3--|
C#|----0-0---0-----0-0--0-0----0----0----0-0---0-----0-0--0-0----0----0---1-1-1-1-x-x--1-1-1-1--|
PM     * *   *     *    * *    *    *    * *   *     *    * *    *    *                          

[Verse 2.1 , BASS ONLY]

C#|------------------------------------------------------------------------------------|
G#|------------------------------------------------------------------------------------|
E |------------------------------------------------------------------------------------|
B |------------------------------------------------------------------------------------|
F#|----12---11-------------------------------------------------------------------------|
C#|--0----0----0-----------------------------------------------------------------------|
PM   *    *    * 

[Verse 2.2 , guitars kick in]

C#|------------------------------------------------------------------------------------|
G#|------------------------------------------------------------------------------------|
E |------------------------------------------------------------------------------------|
B |------------------------------------------------------------------------------------|
F#|----12---11-----8-----5---8\7----------12---11----8-----5---8\7----------12---11----|
C#|--0----0----0-----0-0---0-----0-0--0-0----0----0----0-0---0-----0-0--0-0----0----0--|
PM   *    *    *     * *   *     *    * *    *    *    * *   *     *    * *    *    *

C#|-------------------------------------------------------------------------------------------------|
G#|-------------------------------------------------------------------------------------------------|
E |-------------------------------------------------------------------------------------------------|
B |-----------------------------------------------------------------------3-3-3-3-x-x--3-3-3-3------|
F#|--8-----5---8\7----------12---11----8-----5---8\7----------12---11-----3-3-3-3-x-x--3-3-3-3------|
C#|----0-0---0-----0-0--0-0----0----0----0-0---0-----0-0--0-0----0----0---1-1-1-1-x-x--1-1-1-1-1/3b-|   
PM     * *   *     *    * *    *    *    * *   *     *    * *    *    *

[Verse 2.3]


C#|------------------------------------------------------------------------------------|
G#|------------------------------------------------------------------------------------|
E |------------------------------------------------------------------------------------|
B |------------------------------------------------------------------------------------|
F#|----12---11-----8-----5---8\7----------12---11----8-----5---8\7----------12---11----|
C#|--0----0----0-----0-0---0-----0-0--0-0----0----0----0-0---0-----0-0--0-0----0----0--|
PM   *    *    *     * *   *     *    * *    *    *    * *   *     *    * *    *    *

C#|-------------------------------------------------------------------------------------------------|
G#|-------------------------------------------------------------------------------------------------|
E |-------------------------------------------------------------------------------------------------|
B |-----------------------------------------------------------------------3-3-3-3-x-x--3-3-3-3-x-x--|
F#|--8-----5---8\7----------12---11----8-----5---8\7----------12---11-----3-3-3-3-x-x--3-3-3-3-x-x--|
C#|----0-0---0-----0-0--0-0----0----0----0-0---0-----0-0--0-0----0----0---1-1-1-1-x-x--1-1-1-1-x-x--|
PM     * *   *     *    * *    *    *    * *   *     *    * *    *    *

[Chorus 2]

C#|----------------------------------------------------------------|
G#|------------------------------7----7----7--7--7-7-7-7--7-7-7-7--|
E |--9----9--9-9-----------------7----7----7--7--7-7-7-7--7-7-7-7--|
G |--9----9--9-9/10--10-10-10----7----7----7--7--7-7-7-7--7-7-7-7--|
F#|--7----7--7-7-7---7--7--7-----5----5----5--5--5-5-5-5--5-5-5-5--|
C#|--0----0--0-0-0---0--0--0---------------------------------------|

C#|----------------------------------------------------------------|
G#|------------------------------7----7----7-----------------------|
E |--9----9--9-9-----------------7----7----7--7-7--5--5~-----------|
G |--9----9--9-9/10--10-10-10----7----7----7--7-7--5--5~-----------|
F#|--7----7--7-7-7---7--7--7-----5----5----5--5-5--3--3~-----------|
C#|--0----0--0-0-0---0--0--0---------------------------------------|


C#|----------------------------------------------------------------|
G#|------------------------------7----7----7--7--7-7-7-7--7-7-7-7--|
E |--9----9--9-9-----------------7----7----7--7--7-7-7-7--7-7-7-7--|
G |--9----9--9-9/10--10-10-10----7----7----7--7--7-7-7-7--7-7-7-7--|
F#|--7----7--7-7-7---7--7--7-----5----5----5--5--5-5-5-5--5-5-5-5--|
C#|--0----0--0-0-0---0--0--0---------------------------------------|

C#|----------------------------------------------------------------|
G#|------------------------------7----7----7-----------------------|
E |--9----9--9-9-----------------7----7----7--7-7------------------|
G |--9----9--9-9/10--10-10-10----7----7----7--7-7--7--7~-----------|
F#|--7----7--7-7-7---7--7--7-----5----5----5--5-5--5--5~-----------|
C#|--0----0--0-0-0---0--0--0---------------------------------------|

[Bridge 1.2]

C#|--------------------------------------------------------------7*---7*-------|
G#|----------------------------------------------------------------7*---7*-----|
E |-----------------------------------------------------------------------7*~--|
B |----------------------------------------------------------------------------|
F#|----------------------------------------------------------------------------|
C#|--0-0--7-7--6-6--2-2--5-5--1-1--4-4--1-1--0-0--7-7--6-6---------------------|
PM   * *            * *  * *  * *  * *  * *  * *  

C#|--------------------------------------------------------------7*---7*-------|
G#|----------------------------------------------------------------7*---7*-----|
E |-----------------------------------------------------------------------7*~--|
B |----------------------------------------------------------------------------|
F#|----------------------------------------------------------------------------|
C#|--0-0--7-7--6-6--2-2--5-5--1-1--4-4--1-1--0-0--7-7--6-6---------------------|
PM   * *            * *  * *  * *  * *  * *  * *  

C#|----------------------------------------------------------------------------------|
G#|----------------------------------------------------------------------------------|
E |----------------------------------------------------------------------------------|
B |----------------------------------------------------------------------------------|
F#|----------------------------------------------------------------------------------|
C#|--0-0--7-7--6-6--2-2--5-5--1-1--4-4--1-1--0-0--7-7--6-6--2-2--5-5--1-1--4-4--1-1--|
PM   * *            * *  * *  * *  * *  * *  * *            * *  * *  * *  * *  * *

C#|----------------------------------------------------------------------------------|
G#|----------------------------------------------------------------------------------|
E |----------------------------------------------------------------------------------|
B |--------------------------------------------------------------7-------------------|
F#|--------------------------------------------------------------7-------------------|
C#|--0-0--7-7--6-6--2-2--5-5--1-1--4-4--1-1--0-0--7-7--6-6--2-2--5-------------------|
PM   * *            * *  * *  * *  * *  * *  * *            * *

[Bridge 1.3]

Now there are two ways of playing this; either play the full powerchord, or only the root note of -
- the chords. I saw them doing this as well. 
(It might be tricky for some to do those powerchords cleanly at this tempo)


C#|------------------------------------------------------------------|
G#|------------------------------------------------------------------|
E |------------------------------------------------------------------|
B |--2-------9-------8-------4-------7-------3-------6-------3-------|
F#|--2-------9-------8-------4-------7-------3-------6-------3-------|
C#|--0--0-0--7--0-0--6--0-0--2--0-0--5--0-0--1--0-0--4--0-0--1--0-0--|
PM      * *     * *     * *     * *     * *     * *     * *     * *

C#|------------------------------------------------------------------|
G#|------------------------------------------------------------------|
E |------------------------------------------------------------------|
B |--2-------9-------8-------4-------7-------3-------6--5--3~--------|
F#|--2-------9-------8-------4-------7-------3-------6--5--3~--------|
C#|--0--0-0--7--0-0--6--0-0--2--0-0--5--0-0--1--0-0--4--3--1~--------|
PM      * *     * *     * *     * *     * *     * *  *  *

C#|------------------------------------------------------------------|
G#|------------------------------------------------------------------|
E |------------------------------------------------------------------|
B |--2-------9-------8-------4-------7-------3-------6-------3-------|
F#|--2-------9-------8-------4-------7-------3-------6-------3-------|
C#|--0--0-0--7--0-0--6--0-0--2--0-0--5--0-0--1--0-0--4--0-0--1--0-0--|
PM      * *     * *     * *     * *     * *     * *     * *     * *

C#|------------------------------------------------------------------|
G#|------------------------------------------------------------------|
E |------------------------------------------------------------------|
B |--2-------9-------8-------4-------7-------3-------6--5--3~--------|
F#|--2-------9-------8-------4-------7-------3-------6--5--3~--------|
C#|--0--0-0--7--0-0--6--0-0--2--0-0--5--0-0--1--0-0--4--3--1~--------|
PM      * *     * *     * *     * *     * *     * *  *  *

[Bridge 1.4]

They only play root notes here.

C#|--------------------------------------------------------|
G#|--------------------------------------------------------|
E |--------------------------------------------------------|
B |--------------------------------------------------2~----|
F#|--------------------------------------------------2~----|
C#|--12--10-8~--7--8/10\8-7h8-7-5--7/8-7-5--3-5-0~---0~----|

C#|--------------------------------------------------------|
G#|--------------------------------------------------------|
E |--------------------------------------------------------|
B |--------------------------------------------------2~----|
F#|--------------------------------------------------2~----|
C#|--12--10-8~--7--8/10\8-7h8-7-5--7/8-7-5--3-5-0~---0~----|

C#|--------------------------------------------------------|
G#|--------------------------------------------------------|
E |--------------------------------------------------------|
B |--------------------------------------------------2~----|
F#|--------------------------------------------------2~----|
C#|--12--10-8~--7--8/10\8-7h8-7-5--7/8-7-5--3-5-0~---0~----|

C#|--------------------------------------------------------|
G#|--------------------------------------------------------|
E |--------------------------------------------------------|
B |--------------------------------------------------2~----|
F#|--------------------------------------------------2~----|
C#|--12--10-8~--7--8/10\8-7h8-7-5--7/8-7-5--3-5-0~---0~----|

[Chorus 3]

C#|-------------------------------------------------------------------|
G#|------------------------------7----7----7--7--7-7-7-7--7-7-7-7-----|
E |--9----9--9-9-----------------7----7----7--7--7-7-7-7--7-7-7-7-----|
G |--9----9--9-9/10--10-10-10----7----7----7--7--7-7-7-7--7-7-7-7-----|
F#|--7----7--7-7-7---7--7--7-----5----5----5--5--5-5-5-5--5-5-5-5-----|
C#|--0----0--0-0-0---0--0--0------------------------------------------|

C#|-------------------------------------------------------------------|
G#|------------------------------7----7----7--------------------------|
E |--9----9--9-9-----------------7----7----7--7-7--5--5~--------------|
G |--9----9--9-9/10--10-10-10----7----7----7--7-7--5--5~--------------|
F#|--7----7--7-7-7---7--7--7-----5----5----5--5-5--3--3~--------------|
C#|--0----0--0-0-0---0--0--0------------------------------------------|


C#|-------------------------------------------------------------------|
G#|------------------------------7----7----7--7--7-7-7-7--7-7-7-7-----|
E |--9----9--9-9-----------------7----7----7--7--7-7-7-7--7-7-7-7-----|
G |--9----9--9-9/10--10-10-10----7----7----7--7--7-7-7-7--7-7-7-7-----|
F#|--7----7--7-7-7---7--7--7-----5----5----5--5--5-5-5-5--5-5-5-5-----|
C#|--0----0--0-0-0---0--0--0------------------------------------------|

C#|-------------------------------------------------------------------|
G#|------------------------------7----7----7--------------------------|
E |--9----9--9-9-----------------7----7----7--7-7---------------------|
G |--9----9--9-9/10--10-10-10----7----7----7--7-7--7--7~--------------|
F#|--7----7--7-7-7---7--7--7-----5----5----5--5-5--5--5~---12---11----|
C#|--0----0--0-0-0---0--0--0----------------------------------0----0--|
PM                                                            *    *

[Outro / Main Riff / Bridge Riff]

C#|-------------------------------------------------------------------------|
G#|-------------------------------------------------------------------------|
E |-------------------------------------------------------------------------|
B |-------------------------------------------------------------------------|
F#|--8-----5---8\7----------12---11----8-----5---8\7----------12---11-------|
C#|----0-0---0-----0-0--0-0----0----0----0-0---0-----0-0--0-0----0----0-----|
PM     * *   *     *    * *    *    *    * *   *     *    * *    *    *

C#|-------------------------------------------------------------------------|
G#|-------------------------------------------------------------------------|
E |-------------------------------------------------------------------------|
B |------------------------------------3-3-3-3-x-x--3-3-3-3-x-x-------------|
F#|--8-----5---8\7----------12---11----3-3-3-3-x-x--3-3-3-3-x-x--12---11----|
C#|----0-0---0-----0-0--0-0----0----0--1-1-1-1-x-x--1-1-1-1-x-x-----0----0--|
PM     * *   *     *    * *    *    *                               *    *

C#|-------------------------------------------------------------------------|
G#|-------------------------------------------------------------------------|
E |-------------------------------------------------------------------------|
B |-------------------------------------------------------------------------|
F#|--8-----5---8\7----------12---11----8-----5---8\7----------12---11-------|
C#|----0-0---0-----0-0--0-0----0----0----0-0---0-----0-0--0-0----0----0-----|
PM     * *   *     *    * *    *    *    * *   *     *    * *    *    *

C#|-------------------------------------------------------------------------|
G#|-------------------------------------------------------------------------|
E |-------------------------------------------------------------------------|
B |------------------------------------3-3-3-3-x-x--15-15-15-15\------------|
F#|--8-----5---8\7----------12---11----3-3-3-3-x-x--15-15-15-15\------------|
C#|----0-0---0-----0-0--0-0----0----0--1-1-1-1-x-x--13-13-13-13\------------|
PM     * *   *     *    * *    *    *   

C#|--------------------------------------------------------|
G#|--------------------------------------------------------|
E |--------------------------------------------------------|
B |--------------------------------------------------2~----|
F#|--------------------------------------------------2~----|
C#|--12--10-8~--7--8/10\8-7h8-7-5--7/8-7-5--3-5-0~---0~----|

C#|--------------------------------------------------------|
G#|--------------------------------------------------------|
E |--------------------------------------------------------|
B |--------------------------------------------------2~----|
F#|--------------------------------------------------2~----|
C#|--12--10-8~--7--8/10\8-7h8-7-5--7/8-7-5--3-5-0~---0~----|

C#|--------------------------------------------------------|
G#|--------------------------------------------------------|
E |--------------------------------------------------------|
B |--------------------------------------------------2~----|
F#|--------------------------------------------------2~----|
C#|--12--10-8~--7--8/10\8-7h8-7-5--7/8-7-5--3-5-0~---0~----|

C#|--------------------------------------------------------|
G#|--------------------------------------------------------|
E |--------------------------------------------------------|
B |--------------------------------------------------------|
F#|--------------------------------------------------------|
C#|--12--10-8~--7--8/10\8-7h8-7-5--7/8-7-5--3-5-0~---------|




************************************

| x  Dead note
| h  Hammer-on
| b  Bend
| /  Slide up
| \  Slide down
| ~  Vibrato
| *  Palm mute

************************************
Suggest correction
comments
print report bad tab
1 comment total.
0 reply
mustaine42 60 May 04, 2016 04:33 PM

This is a pretty good tab, but I did find an error with your bridge. The section titled 2.1 sounds like it should be this:

eb|-------------------------------------------------------------------------------------|
Bb|-------------------------------------------------------------------------------------|
Gb|-------------------------------------------------------------------------------------|
Db|-------------------------------------------------------------------------------------|
Ab|--13--10-8~--7-8-10--8-7-8-7-5-7-8-7-5---3-5-0~---12---------------------------------|
Db|--13--10-8~--7-8-10--8-7-8-7-5-7-8-7-5---3-5-0~---12---------------------------------|

guest
You may want to rate the tab now too:
select rating
Wanna post a correction for this tab? Suggest correction