Oops, an error
Loading. Please wait.

Cauterize tab

version 2
version 2

Whole song

Interactive

3,005 views 36 this week
no commentswrite comment
1 2 3 4 5
x 8
add to favorites
×
Save as Personal and add changes to this tab that will be seen only by you. Learn more ›
×
You can save this tab as Personal to edit and correct it or add notes. All changes will be seen only by you. Learn more »
launch autoscroll
font size
0
reset
how to read this tab
guitar tuner
edit
Autoscroll
slow
fast
+/-
esc
set tempo
stop
-------------------------------------------------------------------------------
                             Cauterize - Mark Tremonti
-------------------------------------------------------------------------------
Credit to:Ferdos Shahidi
E-mail:ferdosshahidi@gmail.com
(made some changes but mostly his work)

Tuning:Drop C#

Intro:
D#|-----------|  ----------------------------| -----------|  ------------------------------|
A#|-----------|  ----------------------------| -----------|  ------------------------------|
F#|-----------|  -------3--------------------| -----------|  -------3----------------------|
C#|-----------|x4-------3--1-----4-1-------1-| -----------|x4 ------3--1-----4-1-------1---|
G#|-----------|  -------1--1-----4-1-------1-| -----------|  -------1--1-----4-1-------1---|
C#|-0-0-0-0-0-|  -0-0-0----1-0-0-4-1-0-0-0-1-| +5-+5-+5-+5|  -0-0-0----1-0-0-4-1-0-0-0-1---|

D#|-----------|  ----------------------------| -----------|  ------------------------------|
A#|-----------|  ----------------------------| -----------|  ------------------------------|
F#|-----------|  -------3--------------------| -----------|  -------3----------------------|
C#|-----------|x4-------3--1-----4-1-------1-| -----------|x4 ------3--1-----4-1-------1---|
G#|-----------|  -------1--1-----4-1-------1-| -----------|  -------1--1-----4-1-------1---|
C#|+3-+3-+3-+3|  -0-0-0----1-0-0-4-1-0-0-0-1-| +9-+9-+9-+9|  -0-0-0----1-0-0-4-1-0-0-0-1---|
    

Verse:x2
D#|----------------------------------------------------------------------------------------|
A#|----------------------------------------------------------------------------------------|
F#|-9---9--9--10-10-9--9-9-10-9--9--9---7-7-10-10-10-9-9--7-7--7--7-7----------------------|
C#|-0---0--0--0--0--0--0-0-0--0--0--0---0-0-0--0--0--0-0--0-0--10-1010---------------------|
G#|-x---x--x--x--x--x--x-x-x--x--x--x---x-x-x--x--x--x-x--x-x--x--x-x----------------------|
C#|-10--10-10-10-10-10-101010-10-10-10--8-8-8--8--8--8-8--8-8--8--8-8----------------------|

D#|----------------------------------------------------------------------------------------|
A#|----------------------------------------------------------------------------------------|
F#|--10-9-9---9--9-9-9-----7------9------14-------10-9-9---9--9-9-9-----9------10-----17---|
C#|--x--x-x---x--x-x-x-----x------x------x--------x--x-x---x--x-x-x-----x------x------x----|
G#|--8--7-7---7--7-7-7-----5------7------12-------8--7-7---7--7-7-7-----7------8------15---|
C#|---------0--------0----------------------------------0---------0------------------------|





Chorus:x2
D#|--------------------------------------------------------------------------|
A#|--------------------------------------------------------------------------|
F#|-10-9-9---9--9--9---9---9---9--10--10--10-10-10-10------------------------|
C#|-x--x-7---7--7--7---7---7---7--8---8---8--8--8--8-------------------------|
G#|-8--7-7---7--7--7---7---7---7--8---8---8--8--8--8-------------------------|
C#|------7---7--7--7---7---7---7--8---8---8--8--8--8-------------------------|

D#|--------------------------------------------------------------------------|
A#|--------------------------------------------------------------------------|
F#|-5--5-5-5-5--5-5-5-5-5-5-5------------------------------------------------|
C#|-3--3-3-3-3--3-3-3-3-3-3-3-5--5-5-5-5--5--5-5-5-5-5-----------------------|
G#|-3--3-3-3-3--3-3-3-3-3-3-3-3--3-3-3-3--3--3-3-3-3-3-----------------------|
C#|-3--3-3-3-3--3-3-3-3-3-3-3-2--2-2-2-2--2--2-2-2-2-2-----------------------|

Intro riff:x1

D#|-----------|  ----------------------------| -----------|  ------------------------------|
A#|-----------|  ----------------------------| -----------|  ------------------------------|
F#|-----------|  -------3--------------------| -----------|  -------3----------------------|
C#|-----------|x4-------3--1-----4-1-------1-| -----------|x4 ------3--1-----4-1-------1---|
G#|-----------|  -------1--1-----4-1-------1-| -----------|  -------1--1-----4-1-------1---|
C#|-0-0-0-0-0-|  -0-0-0----1-0-0-4-1-0-0-0-1-| +5-+5-+5-+5|  -0-0-0----1-0-0-4-1-0-0-0-1---|


                                            

Bridge:
D#|------------------------------------------------------------------------- ----------------------|
A#|--------------------------------------------3-3--3--3-3--3-3-3---3-3--3-3-- ----------------------|
F#|--------------------------------------------2-2--2--2-2--2-2-2---2-2--2-2-- ----------------------|
C#|---------------------------------5----------0-0--0--0-0--0-0-0---0-0--0-0-- ------------------/0--|x2
G#|---5---7---8---7---5-----5---7-------7---8--0-0--0--0-0--0-0-0---0-0--0-0-- a slide from down /0--|
C#|-8---8---8---8---8-----8---8---8---8---8----0-0--0--0-0--0-0-0---0-0--0-0-- ------------------/0--|
    * * * * * * * * * *   * * * * * * * * * *       *               * *
D#|-3--3-3--3-3-3-3--3-3-1--1-1--1-1-1-1--1-1-0--0-0--0-0-0-0--0-0-1--1-1--1-1-1-1--1-1---|
A#|-3--3-3--3-3-3-3--3-3-1--1-1--1-1-1-1--1-1-3--3-3--3-3-3-3--3-3-1--1-1--1-1-1-1--1-1---|
F#|-5--5-5--5-5-5-5--5-5-3--3-3--3-3-3-3--3-3-2--2-2--2-2-2-2--2-2-3--3-3--3-3-3-3--3-3---|
C#|-5--5-5--5-5-5-5--5-5-3--3-3--3-3-3-3--3-3-0--0-0--0-0-0-0--0-0-3--3-3--3-3-3-3--3-3---|x2
G#|-3--3-3--3-3-3-3--3-3-1--1-1--1-1-1-1--1-1-0--0-0--0-0-0-0--0-0-1--1-1--1-1-1-1--1-1---|
C#|-------------------------------------------0--0-0--0-0-0-0--0-0------------------------|

D#|-------------------------------------------------------------------|
A#|-------------------------------------------------------------------|
F#|-5--5-5--5-5-5-5--5-5-3--3-3--3-3-3-3--3-3--3-3--3-3--3-3-3-3--3---|
C#|-5--5-5--5-5-5-5--5-5-3--3-3--3-3-3-3--3-3--3-3--3-3--3-3-3-3--3---|
G#|-3--3-3--3-3-3-3--3-3-1--1-1--1-1-1-1--1-1--1-1--1-1--1-1-1-1--1---|
C#|-------------------------------------------------------------------|

D#|-----------|  ----------------------------| -----------|  ------------------------------|
A#|-----------|  ----------------------------| -----------|  ------------------------------|
F#|-----------|  -------3--------------------| -----------|  -------3----------------------|
C#|-----------|x4-------3--1-----4-1-------1-| -----------|x4 ------3--1-----4-1-------1---|
G#|-----------|  -------1--1-----4-1-------1-| -----------|  -------1--1-----4-1-------1---|
C#|-0-0-0-0-0-|  -0-0-0----1-0-0-4-1-0-0-0-1-| +5-+5-+5-+5|  -0-0-0----1-0-0-4-1-0-0-0-1---|

                                                * * * * *
Chorus:
D#|--------------------------------------------------------------------------|
A#|------10--10-10-10--10--10--10-11--11--11-11-11-11------------------------|
F#|-10-9-9---9--9--9---9---9---9--10--10--10-10-10-10------------------------|
C#|-x--x-7---7--7--7---7---7---7--8---8---8--8--8--8-------------------------|
G#|-8--7-7---7--7--7---7---7---7--8---8---8--8--8--8-------------------------|
C#|------7---7--7--7---7---7---7--8---8---8--8--8--8-------------------------|

D#|---------------------------------------------------------------------------|
A#|-6--6-6-6-6--6-6-6-6-6-6-6-------------------------------------------------|
F#|-5--5-5-5-5--5-5-5-5-5-5-5-------------------------------------------------|
C#|-3--3-3-3-3--3-3-3-3-3-3-3-5--5-5-5-5--5--5-5-5-5-5------------------------|
G#|-3--3-3-3-3--3-3-3-3-3-3-3-3--3-3-3-3--3--3-3-3-3-3------------------------|
C#|-3--3-3-3-3--3-3-3-3-3-3-3-2--2-2-2-2--2--2-2-2-2-2------------------------|

D#|--------------------------------------------------------------------------|
A#|------10--10-10-10--10--10--10-11--11--11-11-11-11------------------------|
F#|-10-9-9---9--9--9---9---9---9--10--10--10-10-10-10------------------------|
C#|-x--x-7---7--7--7---7---7---7--8---8---8--8--8--8-------------------------|
G#|-8--7-7---7--7--7---7---7---7--8---8---8--8--8--8-------------------------|
C#|------7---7--7--7---7---7---7--8---8---8--8--8--8-------------------------|

D#|---------------------------------------------------------------------------|
A#|-6--6-6-6-6--6-6-6-6-6-6-6-------------------------------------------------|
F#|-5--5-5-5-5--5-5-5-5-5-5-5-------------------------------------------------|
C#|-3--3-3-3-3--3-3-3-3-3-3-3-5--5-5-5-5--5--5-5-5-5-5------------------------|
G#|-3--3-3-3-3--3-3-3-3-3-3-3-3--3-3-3-3--3--3-3-3-3-3------------------------|
C#|-3--3-3-3-3--3-3-3-3-3-3-3-2--2-2-2-2--2--2-2-2-2-2------------------------|

D#|--------------------------------------------------------------------------|
A#|------10--10-10-10--10--10--10-11--11--11-11-11-11------------------------|
F#|-10-9-9---9--9--9---9---9---9--10--10--10-10-10-10------------------------|
C#|-x--x-7---7--7--7---7---7---7--8---8---8--8--8--8-------------------------|
G#|-8--7-7---7--7--7---7---7---7--8---8---8--8--8--8-------------------------|
C#|------7---7--7--7---7---7---7--8---8---8--8--8--8-------------------------|

D#|---------------------------------------------------------------------------|
A#|-6--6-6-6-6--6-6-6-6-6-6-6-------------------------------------------------|
F#|-5--5-5-5-5--5-5-5-5-5-5-5-------------------------------------------------|
C#|-3--3-3-3-3--3-3-3-3-3-3-3-----------5--5-----------5--5-------------------|
G#|-3--3-3-3-3--3-3-3-3-3-3-3-----------3--3-----------3--3-------------------|
C#|-3--3-3-3-3--3-3-3-3-3-3-3-2-2-2-2---2--2--2--2-2-2-2--2--2-------------------|

D#|--------------------------------------------------------------------------|
A#|------10--10-10-10--10--10--10-11--11--11-11-11-11------------------------|
F#|-10-9-9---9--9--9---9---9---9--10--10--10-10-10-10------------------------|
C#|-x--x-7---7--7--7---7---7---7--8---8---8--8--8--8-------------------------|
G#|-8--7-7---7--7--7---7---7---7--8---8---8--8--8--8-------------------------|
C#|------7---7--7--7---7---7---7--8---8---8--8--8--8-------------------------|

D#|---------------------------------------------------------------------------|
A#|-6--6-6-6-6--6-6-6-6-6-6-6-------------------------------------------------|
F#|-5--5-5-5-5--5-5-5-5-5-5-5--------------------------7----------------------|
C#|-3--3-3-3-3--3-3-3-3-3-3-3-5--5-5-5-5--5--5-5-5-5-5-7----------------------|
G#|-3--3-3-3-3--3-3-3-3-3-3-3-3--3-3-3-3--3--3-3-3-3-3-5----------------------|
C#|-3--3-3-3-3--3-3-3-3-3-3-3-2--2-2-2-2--2--2-2-2-2-2------------------------|

Outro:
D#|-------------------------------------------|
A#|-5h6-5-------------------------------------|
F#|-------5~-5-7--7---0-2--2-0--4/5---5/7-\5--|
C#|-------------------------------------------|
G#|-------------------------------------------|
C#|-0---0-7~-7-8--8---3-3--3-3--2---2---------|

D#|-------------------------------------------|
A#|-5h6-5---5--------11---------------------5-|
F#|-------5---5-7--7---0-2--2-0--4/5---5/7----|
C#|-------------------------------------------|
G#|-------------------------------------------|
C#|-0---0-7---7-8--8---3-3--3-3--2---2--------|

D#|-----------------10--5-6-6-5---8--8h10-8---|
A#|-5h6-5---8----------------------8-----------|
F#|-------5---5-7--7--------------------------|
C#|-------------------------------------------|
G#|-------------------------------------------|
C#|-0---0-7---7-8--8---3-3-3-3--10--10--------|

D#|--------------------5-6-6-5---8--8h10-8----|
A#|-5h6-5---5--------11-----------8-----------|
F#|-------5---5-7--7--------------------------|
C#|-------------------------------------------|
G#|-------------------------------------------|
C#|-0---0-7---7-8--8---3-3-3-3--10--10--------|

D#|------------|
A#|-6p5--------|
F#|-----5------|
C#|-------0----|
G#|------------|
C#|-0----------|

************************************

| /   slide up
| \   slide down
| h   hammer-on
| p   pull-off
| ~   vibrato
| +   harmonic
| x   Mute note
| b   Bend
| pb  Pre-bend
| br  Bend release
| pbr Pre-bend release
| brb Bend release bend

************************************

            
            
Suggest correction
Creating personal tab
Creating personal tab
You can edit any tab online and save it as your Personal.

You can edit, replace or remove any tab part or add personal notes – all changes will be seen only by you.

Personal tabs can be accessed anytime from any device, even offline.
Learn more »
comments
print report bad tab
guest
You may want to rate the tab now too:
select rating
Wanna post a correction for this tab? Suggest correction