Oops, an error
Loading. Please wait.

Fall Again tab

version 1
version 1

Whole song

  • Full version of song with all guitar parts. Some p... Show more

Interactive

388 views 6 this week
1 commentread comment
1 2 3 4 5
x 3
add to favorites
×
Save as Personal and add changes to this tab that will be seen only by you. Learn more ›
×
You can save this tab as Personal to edit and correct it or add notes. All changes will be seen only by you. Learn more »
launch autoscroll
font size
0
reset
how to read this tab
guitar tuner
edit
Autoscroll
slow
fast
+/-
esc
set tempo
stop
About this tab version
Full version of song with all guitar parts. Some parts overlap so 3 guitars would be needed to play it like the album version. Was this info helpful? Yes No
Artist/Title: Tremonti - "Fall Again"
Album: Cauterize
Tuning: Guitar 1 Double Drop C# (C# G# C# F# A# C#)
        Guitar 2 Drop C#
Author: jjhand

Notes: Guitar 2 can double the verses but not play the high open C# notes. 
Nice slow and serious number on the Cauterize album set apart from the 
thrash metal riffs in most the other tracks. Good lead soloing that is not
too difficult as well. Please rate or comment.


[Intro]
   Clean guitar picks up at 0:28 after a heavily processed backward guitar track

C#|---------------------|
A#|----------11-11---11-|
F#|----------10-10---10-|
C#|----------8--8----8--|
G#|---------------------|
C#|---------------------|
        "Now that I can"


C#|-0---------------------------------|-0----------------------------------|
A#|-6----------------------10-10---10-|-7-----------------------11-11---11-|
F#|-5----------------------9--9----9--|-7-----------------------10-10---10-|
C#|-3----------------------7--7----7--|-0-----------------------8--8----8--|
G#|-----------------------------------|------------------------------------| 
C#|-----------------------------------|------------------------------------|
   "see               I'll admit my mistake             We'll show with great" 

C#|-0---------------------------------|-0----------------------------------|
A#|-6----------------------10-10---10-|-7-----------------------11-11---11-|
F#|-5----------------------9--9----9--|-7-----------------------10-10---10-|
C#|-3----------------------7--7----7--|-0-----------------------8--8----8--|
G#|-----------------------------------|------------------------------------| 
C#|-----------------------------------|------------------------------------|
  "honor             how surely we break                      We struggle"

C#|-------------------------0--0---0--|-0-------0-------0---0----0--0----0--|
A#|-6--------6------8---8--10-10---7--|-7-------7----------------11-11---11-|
F#|-5--------5------5---5---9--9---7--|-7-------7-------7/9-9----10-10---10-|
C#|-3--------3--------------7--7------|--------------------------8--8----8--|
G#|-----------------------------------|-------------------------------------|
C#|-----------------------------------|-------------------------------------|
   "within,      yeah we fight for the cause            but soon they'll be"


C#|-------------------------0--0---0--|-0-------0-------0---0----0--0--0--|
A#|-6--------6------5---5--10-10---7--|-7-------7-------------------------|
F#|-5--------5------5---5---9--9---7--|-7-------7-------7/9-9----9--9--9--|
C#|-3--------3--------------7--7------|-----------------------------------|
G#|-----------------------------------|-----------------------------------|
C#|-----------------------------------|-----------------------------------|
  "upon us            and soon we'll be lost...         oh no!"




[Chorus 1]

    Both guitars with Distortion, and slide overlaps the above riff ending 
D#|-----|----------------------------------|----------------------------------|
A#|-----|----------------------------------|----------------------------------|
F#|-----|----------------------------------|----------------------------------|
C#|-----|-3-------3----2-3----3----7-7-7-7-|-7-0-----0--7-0------0----8-8-8-8-|
G#|-7\--|-3-------3----2-3----3----7-7-7-7-|-7-0-----0--7-0------0----8-8-8-8-|
C#|-7\--|-3-------3----2-3----3----7-7-7-7-|-7-0-----0--7-0------0----8-8-8-8-|

D#|--------------------------------|---------------------------------------------|
A#|--------------------------------|---------------------------------------------|
F#|--------------------------------|-----------------3-2-0-----------2-0---------|
C#|-2-3-----3----2-3---3---7-7-7-7-|-7-0-----0--7-0--------3-2-1-0-------3-2-0---|
G#|-2-3-----3----2-3---3---7-7-7-7-|-7-0-----0--7-0----------------------------3-|
C#|-2-3-----3----2-3---3---7-7-7-7-|-7-0-----0--7-0------------------------------|

D#|----------------------------------|----------------------------------|
A#|----------------------------------|----------------------------------|
F#|----------------------------------|----------------------------------|
C#|-3-------3----2-3----3----7-7-7-7-|-7-0-----0--7-0------0----8-8-8-8-|
G#|-3-------3----2-3----3----7-7-7-7-|-7-0-----0--7-0------0----8-8-8-8-|
C#|-3-------3----2-3----3----7-7-7-7-|-7-0-----0--7-0------0----8-8-8-8-|
   "Fall                     a-        gain                       so we"    
                                                         
D#|----------------------------------|----------------------------------|
A#|----------------------------------|----------------------------------|
F#|----------------------------------|----------------------------------|
C#|-2-3-----3----2-3----3----7-7-7-7-|-7-0-----0------------------------|
G#|-2-3-----3----2-3----3----7-7-7-7-|-7-0-----0------------------------|
C#|-2-3-----3----2-3----3----7-7-7-7-|-7-0-----0------------------------|
   "Fall                     a-        gain"



[Verse 2]
C#|---------------------|
A#|----------11-11---11-|
F#|----------10-10---10-|  on the end of the chorus
C#|----------8--8----8--|  switch back to clean channel
G#|---------------------|  leading into the verse
C#|---------------------|
     "We'll chose to be"

C#|-------------------------0--0---0--|-0-------0-------0---0----0--0-------|
A#|-6--------6------5---5--10-10---7--|-7-------7-------8---8----11-11---6--|
F#|-5--------5------5---5---9--9---7--|-7-------7-------7---7----10-10---5--|
C#|-3--------3--------------7--7------|--------------------------8--8----3--|
G#|-----------------------------------|-------------------------------------|
C#|-----------------------------------|-------------------------------------|
   "true                   to life we portrayed               Assuming we're"  

C#|-------------------------0--0---0--|-0-------0-------0---0----0--0-------|
A#|-6--------6------5---5--10-10---7--|-7-------7-------5---5----11-11---6--|
F#|-5--------5------5---5---9--9---7--|-7-------7-------7---7----10-10---5--|
C#|-3--------3--------------7--7------|--------------------------8--8----3--|
G#|-----------------------------------|-------------------------------------|
C#|-----------------------------------|-------------------------------------|
  "given                 a choice to be made                the one that we"

C#|-------------------------0--0---0--|-0-------0-------0---0----0--0-------|
A#|-6--------6------5---5--10-10---7--|-7-------7-------8---8----11-11---6--|
F#|-5--------5------5---5---9--9---7--|-7-------7-------7---7----10-10---5--|
C#|-3--------3--------------7--7------|--------------------------8--8----3--|
G#|-----------------------------------|-------------------------------------|
C#|-----------------------------------|-------------------------------------|
   "envy          oh this path that we choose                 the moment we"        

C#|-------------------------0--0---0--|-0-------0-------0---0---------------|
A#|-6--------6------8---8--10-10---7--|-7-------7-------5---5---------------|
F#|-5--------5------5---5---9--9---7--|-7-------7-------7---7---------------|
C#|-3--------3--------------7--7------|-------------------------------------|
G#|-----------------------------------|-------------------------------------|
C#|-----------------------------------|-------------------------------------|
   "weaken           is the moment we   lose"


[Distorted Verse Transition]

    PM*************
D#|---------------------------------|
A#|---------------------------------|
F#|---------------------------------|
C#|---------------------------------| Guitar 2 overlaps 
G#|-0-0-0-0-0-0-0-0-0-0-0-0-7-7-7-7-| last clean measure
C#|-0-0-0-0-0-0-0-0-0-0-0-0-7-7-7-7-|
                    "And now that I"

    Both guitars again:
D#|----------------------------------|-----------------------------------|
A#|----------------------------------|-----------------------------------|
F#|----------------------------------|--------------------------^--^--^--|
C#|-3-------3----2-3----3----7-7-7-7-|-7-0-----0--7-0------0----8--8--8--|
G#|-3-------3----2-3----3----7-7-7-7-|-7-0-----0--7-0------0----8--8--8--|
C#|-3-------3----2-3----3----7-7-7-7-|-7-0-----0--7-0------0----8--8--8--|
   "can see            that nothing is real.               I hope we can" 

D#|----------------------------------|-----------------------------------|
A#|----------------------------------|-----------------------------------|
F#|----------------------------------|--------------------------^--^--^--|
C#|-3-------3----2-3----3----7-7-7-7-|-7-0-----0--7-0------0----8--8--8--|
G#|-3-------3----2-3----3----7-7-7-7-|-7-0-----0--7-0------0----8--8--8--|
C#|-3-------3----2-3----3----7-7-7-7-|-7-0-----0--7-0------0----8--8--8--|
   "find them        and teach them to feel.                       So we"



[Chorus 2]

    both guitars play this, but solo starts 2 1/2 beats into last measure
D#|----------------------------------|----------------------------------|
A#|----------------------------------|----------------------------------|
F#|----------------------------------|----------------------------------|
C#|-3-------3----2-3----3----7-7-7-7-|-7-0-----0--7-0------0----8-8-8-8-|
G#|-3-------3----2-3----3----7-7-7-7-|-7-0-----0--7-0------0----8-8-8-8-|
C#|-3-------3----2-3----3----7-7-7-7-|-7-0-----0--7-0------0----8-8-8-8-|
   "Fall                     a-        gain                       so we"    
                                                         
D#|----------------------------------|----------------------------------|
A#|----------------------------------|----------------------------------|
F#|----------------------------------|----------------------------------|
C#|-2-3-----3----2-3----3----7-7-7-7-|-7-0-----0--7-0-------------------|
G#|-2-3-----3----2-3----3----7-7-7-7-|-7-0-----0--7-0-------------------|
C#|-2-3-----3----2-3----3----7-7-7-7-|-7-0-----0--7-0-------------------|
   "Fall                     a-        gain"                




[Solo]
C#|-------------------|----------------------------------------|
A#|-------------------|---------------------8--10p8-10------8--|
F#|--7--7--9b10-9--7--|-10--10~-------------------------7-9----|
C#|-------------------|----------------------------------------|
G#|-------------------|----------------------------------------|
C#|-------------------|----------------------------------------|
  |
  | Guitar 2 - Rhythm 
D#|-------------------|----------------------------------------|
A#|-------------------|----------------------------------------|
F#|-------------------|-3----3--3------3----3--3----3--3--3--3-|
C#|-------------------|-3----3--3------3----3--3----3--3--3--3-|
G#|-------------------|-1----1--1------1----1--1----1--1--1--1-|
C#|--0--2--2b3r2--0---|----------------------------------------|

                                            let ring 
C#|---------------------------------------|--------------------------------------|
A#|---------------------------------------|-----8----10--------------------------|
F#|-9~------------7PH-9b10r---7-7-9b10r-7-|----------------------9--9\2-0--------|
C#|---------------------------------------|-7/9----9----------------------2------|
G#|---------------------------------------|---------------------------------0----|
C#|---------------------------------------|-----------------------------------0--|
  |
  |
D#|---------------------------------------|--------------------------------------|
A#|---------------------------------------|--------------------------------------|
F#|-2----2--2-----2----2--2----2--2--2--2-|--------------------------------------|
C#|-2----2--2-----2----2--2----2--2--2--2-|-5----5--5----5----5--5----5--5--5--5-|
G#|-0----0--0-----0----0--0----0--0--0--0-|-5----5--5----5----5--5----5--5--5--5-|
C#|---------------------------------------|-5----5--5----5----5--5----5--5--5--5-|


C#|--------------------------------|-----------------------------|
A#|--------------------------------|-----------------------------|
F#|--------------------------------|-----------------------------|
C#|------------------------PH------|-----------------------------|
G#|-7/9--------9-7------5-7b9r-5---|-8~----8~--------------------|
C#|-(0)------0---------------------|-----------------------------|
  |
  |
D#|--------------------------------|------------------------|
A#|--------------------------------|------------------------|
F#|--------------------------------|------------------------|
C#|-0---0-0-----0---0-0----0-0-0-0-|------------------------|
G#|-0---0-0-----0---0-0----0-0-0-0-|---Go To Bridge---------|
C#|-0---0-0-----0---0-0----0-0-0-0-|------------------------|




[Bridge]

    play 2x, both guitars (solo guitar can join in second measure)
D#|-------------------------------|-------------------------------|
A#|-------------------------------|-------------------------------|
F#|-------------------------------|-------------------------------|
C#|-8---8-8----8---8-8----8-8-8-8-|-7---7-7----7---7-7----7-7-7-7-|
G#|-8---8-8----8---8-8----8-8-8-8-|-7---7-7----7---7-7----7-7-7-7-|
C#|-8---8-8----8---8-8----8-8-8-8-|-7---7-7----7---7-7----7-7-7-7-|
            "And I think I lost my way...  You think it's so easy!"
 

D#|-------------------------------|-------------------------------|
A#|-------------------------------|-------------------------------|
F#|-------------------------------|-------------------------------|
C#|-5---5-5----5---5-5----5-5-5-5-|-0---0-0----0---0-0----0-0-0-0-|
G#|-5---5-5----5---5-5----5-5-5-5-|-0---0-0----0---0-0----0-0-0-0-|
C#|-5---5-5----5---5-5----5-5-5-5-|-0---0-0----0---0-0----0-0-0-0-|
            "You think it's so easy!"


D#|-------------------------------|-------------------------------|
A#|-------------------------------|-------------------------------|
F#|-------------------------------|-------------------------------|
C#|-8---8-8----8---8-8----8-8-8-8-|-7---7-7----7---7-7----7-7-7-7-|
G#|-8---8-8----8---8-8----8-8-8-8-|-7---7-7----7---7-7----7-7-7-7-|
C#|-8---8-8----8---8-8----8-8-8-8-|-7---7-7----7---7-7----7-7-7-7-|
           "Well I think I lost my way...     And it was so easy!"

D#|-------------------------------|--------------------------------|
A#|-------------------------------|--------------------------------|
F#|-------------------------------|--------------------------------|
C#|-5---5-5----5---5-5----5-5-5-5-|-0---0-0----0---0-0----8--8--8\-|
G#|-5---5-5----5---5-5----5-5-5-5-|-0---0-0----0---0-0----8--8--8\-|
C#|-5---5-5----5---5-5----5-5-5-5-|-0---0-0----0---0-0----8--8--8\-|
            "And it was so easy!"


[Final Prechorus]
    distorted guitar, play quietly
D#|------------------------------|-----------------------------|
A#|------------------------------|-----------------------------|
F#|------------------------------|-----------------------------|
C#|-3-------------------/7-------|-0------------------/8-------|
G#|-3-------------------/7-------|-0------------------/8-------|
C#|-3-------------------/7-------|-0------------------/8-------|
  |
  | clean guitar 1
C#|---------------------------0--|-0---------------------------|
A#|-------------------10-10---7--|-7----------------11-11---\6-|
F#|-------------------9--9----7--|-7----------------10-10---\5-|
C#|-------------------7--7----0--|-0----------------8--8----\3-|
G#|------------------------------|-----------------------------| 
C#|------------------------------|-----------------------------|


    distorted guitar, play quietly and fade out
D#|--------------------------------|------------------------------|
A#|--------------------------------|------------------------------|
F#|--------------------------------|------------------------------|
C#|-\3---------------------/7------|-0----------------------------|
G#|-\3---------------------/7------|-0----------------------------|
C#|-\3---------------------/7------|-0----------------------------|
  |
  | clean guitar 1
C#|--------------0-------0--0----0-|-0-----0----0-0------0--0-------|
A#|-6-----6----6-5-------10-10---7-|-7-----7----7-8------11-11---\6-|
F#|-5-----5----5-5-------9--9----7-|-7-----7----7-7------10-10---\5-|
C#|-3-----3----3-3-------7--7----7-|-0-----0----0-0------8--8----\3-|
G#|--------------------------------|--------------------------------| 
C#|--------------------------------|--------------------------------|



[Prechorus Part 2]

    Clean Guitar 1
C#|--------------0---0---x-0--0--x-0--|-0-----0----0-0---0---x-0--0--x----|
A#|-6-----6----6-5---5---x-10-10-x-7--|-7-----7----7-8---8---x-11-11-x-\6-|
F#|-5-----5----5-5---5---x-9--9--x-7--|-7-----7----7-7---7---x-10-10-x-\5-|
C#|-3-----3----3-3---3---x-7--7--x-0--|-0-----0----0-0---0---x-8--8--x-\3-|
G#|-----------------------------------|-----------------------------------| 
C#|-----------------------------------|-----------------------------------|
  |
  |
D#|-----------------------------------|-----------------------------------|
A#|-13~~------------------------------|-----------------------------------|
F#|-----------------------------14b15-|r14~~~-----------------------------|
C#|-----------------------------------|-----------------------------------|
G#|-----------------------------------|-----------------------------------|
C#|-----------------------------------|-----------------------------------|
   "So we fall                      again                            so we"

C#|--------------0---0---x-0--0--x-0--|-0-----0----0-0---0---x-0--0--x----|
A#|-6-----6----6-5---5---x-10-10-x-7--|-7-----7----7-8---8---x-11-11-x-\6-|
F#|-5-----5----5-5---5---x-9--9--x-7--|-7-----7----7-7---7---x-10-10-x-\5-|
C#|-3-----3----3-3---3---x-7--7--x-0--|-0-----0----0-0---0---x-8--8--x-\3-|
G#|-----------------------------------|-----------------------------------| 
C#|-----------------------------------|-----------------------------------|
  |
  |
D#|-----------------------------------|-----------------------------------|
A#|-13~~--------------------------13b-|-b15~~~~~~~~~~--slow bend----------|
F#|-----------------------------------|-----------------------------------|
C#|-----------------------------------|-----------------------------------|
G#|-----------------------------------|-----------------------------------|
C#|-----------------------------------|-----------------------------------|
   "fall                            again                            so we"



[Final Chorus]
D#|----------------------------------|----------------------------------|
A#|----------------------------------|----------------------------------|
F#|----------------------------------|----------------------------------|
C#|-3-------3----2-3----3----7-7-7-7-|-7-0-----0--7-0------0----8-8-8-8-|
G#|-3-------3----2-3----3----7-7-7-7-|-7-0-----0--7-0------0----8-8-8-8-|
C#|-3-------3----2-3----3----7-7-7-7-|-7-0-----0--7-0------0----8-8-8-8-|
   "Fall                     a-        gain                       so we"    
                                                         
D#|----------------------------------|----------------------------------|
A#|----------------------------------|----------------------------------|
F#|----------------------------------|----------------------------------|
C#|-2-3-----3----2-3----3----7-7-7-7-|-7-0-----0--7-0------0----12-12~--|
G#|-2-3-----3----2-3----3----7-7-7-7-|-7-0-----0--7-0------0----12-12~--|
C#|-2-3-----3----2-3----3----7-7-7-7-|-7-0-----0--7-0------0----12-12~--|
   "Fall                     a-        gain"


[Outro Solo]
D#|-12-------------------------------------------------------15pb17--|
A#|------13--------13---15--15b17--15b17--13--------13---15----------|
F#|-----------14-------------------------------14--------------------|
C#|------------------------------------------------------------------|
G#|------------------------------------------------------------------|
C#|------------------------------------------------------------------|


D#|--15pb17______r15----13--12--------10h12p10-----------|
A#|-----------------------------------------------13\10--|
F#|------------------------------------------------------|
C#|------------------------------------------------------|
G#|------------------------------------------------------|
C#|------------------------------------------------------|


D#|--------------------13-----------------|---------------------12-10\8----------|
A#|/13\10/13~~------------------10--------|------------13---/13------------------|
F#|-----------------------12-------9------|-9/10--9/10-------------------10\9----|
C#|---------------------------------------|--------------------------------------|
G#|---------------------------------------|--------------------------------------|
C#|---------------------------------------|--------------------------------------|


D#|-12-------------------------------------------------------15pb17--|
A#|------13--------13---15--15b17--15b17--13--------13---15----------|
F#|-----------14-------------------------------14--------------------|
C#|------------------------------------------------------------------|
G#|------------------------------------------------------------------|
C#|------------------------------------------------------------------|


D#|--15pb17--13-12-15-15~---12----------12-13-13~~---13-12-10-10-------|
A#|----------------------------15-13-15--------------------------13-10-|
F#|--------------------------------------------------------------------|
C#|--------------------------------------------------------------------|
G#|--------------------------------------------------------------------|
C#|--------------------------------------------------------------------|


Ending
D#|--------------------13-----------------|----------------------------|
A#|-13-10h13~~------------------10--------|----------------------------|
F#|-----------------------12-------9------|-9b10r----------------------|
C#|------------------------------------0--|-(0)------------------------|
G#|---------------------------------------|----------------------------|
C#|---------------------------------------|----------------------------|
  |
  |
D#|---------------------------------------|----------------------------|
A#|---------------------------------------|----------------------------|
F#|---------------------------------------|----------------------------|
C#|-2--3-----3----2--3-----3-----7--7--7--|-0--------------------------|
G#|-2--3-----3----2--3-----3-----7--7--7--|-0--------------------------|
C#|-2--3-----3----2--3-----3-----7--7--7--|-0--------------------------|

    Rhythm Guitar plays Chorus Riff during solo




***********************************

h   hammer-on
p   pull-off
/   slide up neck
\   slide down neck
b   bend
r   release bend
pb  pre-bend (note is plucked at the higher bent pitch)
(0) note rings from previous measure
PH  pinch harmonic
~   vibrato
x   muted string during strumming

***********************************

            
            
Suggest correction
Creating personal tab
Creating personal tab
You can edit any tab online and save it as your Personal.

You can edit, replace or remove any tab part or add personal notes – all changes will be seen only by you.

Personal tabs can be accessed anytime from any device, even offline.
Learn more »
Give kudos to tab author, rate the tab!
1 2 3 4 5
comments
print report bad tab
1 comment total.
0 reply
tremonti92 10 Jan 06, 2017 04:02 PM

Thanks man been waiting for this to be posted for awhile

guest
You may want to rate the tab now too:
select rating
Wanna post a correction for this tab? Suggest correction