Oops, an error
Loading. Please wait.

Leave It Alone bass

version 1
version 1

Whole song

Interactive

154 views 1 this week
1 commentread comment
1 2 3 4 5
1 last vote to show rating
add to favorites
×
Save as Personal and add changes to this tab that will be seen only by you. Learn more ›
×
You can save this tab as Personal to edit and correct it or add notes. All changes will be seen only by you. Learn more »
launch autoscroll
font size
0
reset
guitar tuner
edit
Autoscroll
slow
fast
+/-
esc
set tempo
stop
Tremonti - "Leave It Alone"
Tuning: 5 string bass (BEADG)
Tabbed by: jjhand

This was one of the best written songs on the first Tremonti album and the bass 
part is really good. Some of this part was borrowed from the Guitar Pro version.
Please vote or comment.

Intro Riff - Play 4x                                       before verse
G|-------------------------|-------------------------|     |-----------
D|-------------------------|-------------------------|     |-----------
A|---3p2---2-----3p2---0---|---3p2---------3p2-------|     |-----------
E|-------------------------|---------3-----------2-2-|     |--------15\
B|-0-----1-----0-----1-----|-0-----1-----0-----1-----|     |--0--------


Verse Riff
G|--------------|-----------------|---------------------|---------------------|
D|--------------|-----------------|---------------------|---------------------|
A|--------------|-----------------|---------------------|---------------------|
E|-5---5---5-5--|-3---3---3-------|---------------------|---------10-10-10-9--|
B|--------------|-------------3p2-|-0---0--0-0--3--3--2-|-0----0--------------|

G|--------------|-----------------|---------------------|---------------------|
D|--------------|-----------------|---------------------|---------------------|
A|--------------|-----------------|---------------------|---------10-10-10-12-|
E|-5---5---5-5--|-3---3---3-------|---------------------|---------------------|
B|--------------|-------------3p2-|-0---0--0-0--3--3-2--|-0----0--------------|

G|--------------|-----------------|---------------------|---------------------|
D|--------------|-----------------|---------------------|---------------------|
A|--------7-----|---------5-------|---------------------|---------10-10-10-9--|
E|-5---5------5-|--3---3----------|---------------------|---------------------|
B|--------------|-------------3p2-|-0---0--0-0--3--3-2--|-0----0--------------|

G|--------------|-----------------|--------------------|
D|--------------|-----------------|--------------------|
A|--------7-----|-----------------|--------------------|
E|-5---5-----5--|-3---------------|-(3)--------12\-----|
B|--------------|-----------------|--------------------|


Chorus

  play 2x
G|-------------------|-----------------|-----------------|-------------------|
D|-------------------|-----------------|-----------------|-------------------|
A|-----------------4-|-7---7---6---6---|-----------------|-------------------|
E|-------------0-4---|-----------------|-7---7---7---9-7-|-6---6---6-----6-6-|
B|-2---2---2---------|-----------------|-----------------|-------------------|

Chorus Ending
G|------------------|------------------|
D|------------------|------------------|
A|------------------|------------------|
E|-5---5-5--5---5-5-|-3-----------12\--|
B|------------------|------------------|


Play Intro Riff Again

Play Verse Riff

Play Chorus Again, but 4x before its ending


Bridge (2:55)
G|----------------|----------------|----------------|---------------|
D|----------------|----------------|----------------|---------------|
A|----------------|----------------|----------------|---------------|
E|-4--------------|----------------|-6--------------|-4-------------|
B|----------------|-0--------------|----------------|---------------|


Solo Part 1     let notes ring
G|----------------|----------------|----------------|---------------|
D|----------------|----------------|----------------|---------------|
A|----------------|----------------|----------------|---------------|
E|----------------|----------------|----------------|---------------|
B|-9-------9------|-0-------0------|-11--11--11-----|-9---9---9-----|

G|----------------|----------------|----------------|---------------|
D|----------------|----------------|----------------|---------------|
A|----------------|----------------|----------------|---------------|
E|---------11-----|---------7------|--------/13-----|---------13----|
B|-9---9----------|-0---0----------|-11--11---------|-11--11--------|


Solo Part 2
G|----------------|----------------|-----------------|----------------|
D|----------------|----------------|-----------------|----------------|
A|----------------|----------------|-----------------|----------------|
E|----------------|----------------|-----------------|----------------|
B|-9---9---9---9--|-0---0---0---0--|-11--11--11--11--|-9---9---9---9--|

G|----------------|----------------|----------------|----------------|
D|----------------|----------------|----------------|----------------|
A|----------------|----------------|----------------|----------------|
E|---------11-----|---------7-7--7-|----------------|----------------|
B|-9---9----------|-0---0----------|-11--11--11--11-|-11--11--11-----|


Play Chorus Again 


Ending: Play Intro Riff 4x


************************************
Key:
| /   slide up
| \   slide down
| h   hammer-on
| p   pull-off
| ~   vibrato
| +   harmonic
| b   Bend
************************************
Suggest correction
Creating personal tab
Creating personal tab
You can edit any tab online and save it as your Personal.

You can edit, replace or remove any tab part or add personal notes – all changes will be seen only by you.

Personal tabs can be accessed anytime from any device, even offline.
Learn more »
Give kudos to tab author, rate the tab!
1 2 3 4 5
comments
print report bad tab
1 comment total.
0 reply
jjhand 17,434 Jan 17, 2016 07:48 AM

I noticed some differences in the album version and when Brian Marshall played this live - he also apparently had his E string tuned to F# when looking at the Orlando Social footage on youtube. I kept this in standard tuning to make it easier to play.

guest
You may want to rate the tab now too:
select rating
Wanna post a correction for this tab? Suggest correction