Oops, an error
Loading. Please wait.

Never Wrong tab

551 views 9 this week
5 commentsread comments
1 2 3 4 5
x 3
add to favorites
×
Save as Personal and add changes to this tab that will be seen only by you. Learn more ›
×
You can save this tab as Personal to edit and correct it or add notes. All changes will be seen only by you. Learn more »
launch autoscroll
font size
0
reset
how to read this tab
guitar tuner
edit
Autoscroll
slow
fast
+/-
esc
set tempo
stop
[Intro/Verse] (Lead Guitar)(Tremolo pick open high Db string throughout this part)

Eb|-2-3---5-0-1--1p0-2-3-2--5-0-1-1p0-----------------------------------------|
Bb|---------------------------------------------------------------------------|
Gb|---------------------------------------------------------------------------|
Db|-0-0---0-0-0--0---0-0-0--0-0-0-0-------------------------------------------|
Ab|---------------------------------------------------------------------------|
Db|---------------------------------------------------------------------------|
(After intro is played once rhythm guitar comes in with this)
Eb|---------------------------------------------------------------------------|
Bb|---------------------------------------------------------------------------|
Gb|---------------------------------------------------------------------------|
Db|-0-0---0-0-0---------------------------------------------------------------|
Ab|-0-0---0-0-0---------------------------------------------------------------|
Db|-0-0---0-0-0---------------------------------------------------------------|


[Verse]
(Rhythm guitar tremolo picks Eb string)
Eb|-10(x14)/8 (x14)-----------------------------------------------------------|
Bb|---------------------------------------------------------------------------|
Gb|---------------------------------------------------------------------------|
Db|---------------------------------------------------------------------------|
Ab|---------------------------------------------------------------------------|
Db|---------------------------------------------------------------------------|
(Lead guitar plays intro however before chorus comes in plays this)
Eb|-2-3-2-5-0-1~--------------------------------------------------------------|
Bb|---------------------------------------------------------------------------|
Gb|---------------------------------------------------------------------------|
Db|-0-0-0-0-0-0---------------------------------------------------------------|
Ab|---------------------------------------------------------------------------|
Db|---------------------------------------------------------------------------|


[Chorus](Not entirely sure about the strumming pattern)

Eb|---------------------------------------------------------------------------|
Bb|---------------------------------------------------------------------------|
Gb|------------5--------------------------------------------------------------|
Db|-6----3-----5-----0--------------------------------------------------------|
Ab|-6----3-----3(x4)-0--------------------------------------------------------|
Db|-6(x5)3(x5)-------0(x5)----------------------------------------------------|
(on second time)
Eb|---------------------------------------------------------------------------|
Bb|---------------------------------------------------------------------------|
Gb|---------------------------------------------------------------------------|
Db|-6-----3-----5-----0-------------------------------------------------------|
Ab|-6-----3-----3-----0-------------------------------------------------------|
Db|-6(x5)-3(x5)-2(x4)-0(x5)---------------------------------------------------|


[Bridge]
(Lead)
Eb|---------------------------------------------------------------------------|
Bb|---------------------------------------------------------------------------|
Gb|-------2--5--------------2~--5---------------------------------------------|
Db|-----------4b-4b/7-------------4b-4b/10------------------------------------|
Ab|---------------------------------------------------------------------------|
Db|-0-2-3~-2~-0--0----0-2-3~--2~--0--0----------------------------------------|
(Rhythm)
Eb|-10p8--10-10--10-10--10p8-(x2)-10p8--10-10---------------------------------|
Bb|-----10-----10-----10--------------10-----10-8h10-8p6-8--------------------|
Gb|-------------------------------------------------------7~------------------|
Db|---------------------------------------------------------------------------|
Ab|---------------------------------------------------------------------------|
Db|---------------------------------------------------------------------------|
(No solo yet working on it! But repeat intro/chorus again then end on bridge) :)
I know there is also something missing in the bridge but I'll work on that too
:D thanks!

************************************

| x   Dead note
| g   Grace note
| (n) Ghost note
| h   Hammer-on
| p   Pull-off
| r   Release
| >   Accented note
| t   Tapping
| b   Bend
| br  Bend release
| pb  Pre-bend
| pbr Pre-bend release
| /   Slide up
| \   Slide down
| ~   Vibrato
| s   Slap
| P   Pop
| PM  Palm mute
| TR  Trill
| N   Tremolo

************************************

            
            
Suggest correction
Creating personal tab
Creating personal tab
You can edit any tab online and save it as your Personal.

You can edit, replace or remove any tab part or add personal notes – all changes will be seen only by you.

Personal tabs can be accessed anytime from any device, even offline.
Learn more »
Give kudos to tab author, rate the tab!
1 2 3 4 5
comments
print report bad tab
5 comments total. Showing first comments.
+1 reply
amerijckbeheerder 921 Jul 09, 2016 12:58 AM

Great stuff! Allow me to add my parts/toughts and maybe make a Tab Pro?

+1 reply
Kreuger 802 Jul 20, 2016 10:52 AM

I feel like the main riff for the verse should be octaves.

0 reply
Kreuger 802 Jul 20, 2016 10:52 AM

I feel like the main riff for the verse should be octaves.

guest
You may want to rate the tab now too:
select rating
Wanna post a correction for this tab? Suggest correction