Oops, an error
Loading. Please wait.

Providence tab

version 1
version 1

Whole song

Interactive

2,137 views 9 this week
no commentswrite comment
1 2 3 4 5
x 3
add to favorites
×
Save as Personal and add changes to this tab that will be seen only by you. Learn more ›
×
You can save this tab as Personal to edit and correct it or add notes. All changes will be seen only by you. Learn more »
launch autoscroll
font size
0
reset
how to read this tab
guitar tuner
edit
Autoscroll
slow
fast
+/-
esc
set tempo
stop
-------------------------------------------------------------------------------
                             Tremonti - Providence
-------------------------------------------------------------------------------
Tabbed by: TrashMetalMail
E-mail: trashmetalmail1337@gmail.com

My first tab here so its not perfect! 

I will update soon with solo's!
This tab is based on the first ever live play through found here; 
https://www.youtube.com/watch?v=XUaWdXvgjI0

In the chorus it looks like Mark is playing octaves on both low B strings.
But this doesn't sound good to me so I think he mutes the other strings and he's
just playing single notes. Also listen to the song for the proper rhythm, its an odd rhythm.

Git1 = Mark
Git2 = Eric 
Tuning: Open B5 (B F# B F# B B)

Git1 = 2x Intro:
B |---------------------------------------------------------------------------|
B |----3----------2h3-2-----------0---1---------0h1--0-----------0------------|
F#|--------0--------------0---------------0--------------0--------------------|
B |---------------------------------------------------------------------------|
F#|----3-------3--------------3-------1------1--------------1-----------------|
B |---------------------------------------------------------------------------|

B |-----------------------------------------------------12+-------------------|
B |----7-----------5h7----8--------5---5h7------------------12+---------------|
F#|--------0------------------0--------------0-------------------12+----------|
B |--------------------------------------0-----0------------------------------|
F#|-----------------------7---------------------------------------------------|
B |----3------3---------------------------------------------------------------|

Git1 = 2x Intro (Intro is equal to the Verse)

Git 1/2 = Pre-Chorus:
B |---------------------------------------------------------------------------|
B |---------------------------------------------------------------------------|
F#|---------------------------------------------------------------------------|
B |---------------------------------------------------------------------------|
F#|--0-0-0-0-0-0-0-0-0-0-0-0-0-0-0-0-0-0-0-0-0-0-0-0~-------------------------|
B |--0-0-0-0-0-0-0-0-0-0-0-0-0-0-0-0-0-0-0-0-0-0-0-0~-------------------------|
     * * * * * * * * * * * * * * * * * * 

Git 1/2 = 3x Chorus:                  (You could also mute the open high B notes)
B |------------------------------------0--0-0--0--0-0--0---0--0---0---0--0----|
B |------------------------------------0--0-0--0--0-0--0---0--0---0---0--0----|
F#|------------------------------------5--5-5--5--5-5--12--12-12--12--12-12---|
B |------------------------------------x--x-x--x--x-x--x---x--x---x---x--x----|
F#|------------------------------------5--5-5--5--5-5--12--12-12--12--12-12---|
B |--5/8-7-8-7-5-5/7-7/10-8-7-7/8-7-5--x--x-x--x--x-x--x---x--x---x---x--x----|

3rd time ends like this:    (Let the open 0 on the B ring out while lowering volume)
B |---------------------------------------------------------------------------|
B |---------------------------------------------------------------------------|
F#|---------------------------------------------------------------------------|
B |---------------------------------------------------------------------------|
F#|---------------------------------------------------------------------------|
B |--5/8-7-8-7-5-5/7-7/10-8-7-7/8-7-5--0~~------------------------------------|

Git1 = 2x Verse (This is played underneath the solo)

Git1 = 2x Verse (After the solo)

Git 1/2 = Play Pre-Chorus 1x

Git 1/2 = Play Chorus 1x (but play the octaves a little longer heading into the bridge)

4x Bridge:    (Gt1 plays the first beat alone, at the second one Gt2 kicks in)
B |---------------------------------------------------------------------------|
B |---------------------------------------------------------------------------|
F#|---------------------------------------------------------------------------|
B |---------------------------------------------------------------------------|
F#|---------------------------------------------------------------------------|
B |-000-0-0-0-000-0-000-0-0-0-000-0-000-0-0-0-000-0-000-0-0-0-000-000-0-------|
    *** *   * ***   *** *   * ***   *** *   * ***   *** *   * *** ***

Git 1 = 4x Bridge 2:
B |---------------------------------------------------------------------------|
B |---------------------------------------------------------------------------|
F#|---------------------------------------------------------------------------|
B |---------------------------------------------------------------------------|
F#|-111-1-1-1-111-1-111-1-1-1-111-1-----------------333-3-3-3-333-333-3-------|
B |---------------------------------000-0-0-0-000-0---------------------------|
    *** *   * ***   *** *   * ***   *** *   * ***   *** *   * *** ***

(Im not sure about this part, you can figure out 
the timing and strumming yourself it isnt that hard. These chords sound about 
right but they could be playing something totaly different)

Rhythm during solo played by Git2 4x:
B |---------------------------------------------------------------------------|
B |---------------------------------------------------------------------------|
F#|---------------------------------------------------------------------------|
B |-8-8-8-8-8-8-8-3-3-3-3-3-10-10-10-10-x-------------------------------------|
F#|-8-8-8-8-8-8-8-3-3-3-3-3-10-10-10-10-x-------------------------------------|
B |-8-8-8-8-8-8-8-3-3-3-3-3-10-10-10-10-x-------------------------------------|

The 4th time end on this:
B |---------------------------------------------------------------------------|
B |---------------------------------------------------------------------------|
F#|---------------------------------------------------------------------------|
B |-8-8-8-8-8-8-8-3-3-3-3-3-10-10-10-10---------------------------------------|
F#|-8-8-8-8-8-8-8-3-3-3-3-3-10-10-10-10---------------------------------------|
B |-8-8-8-8-8-8-8-3-3-3-3-3-10-10-10-10--0~~~~--------------------------------|

2x Post-Solo: Gt1 plays this:
B |---------------------------------------------------------------------------|
B |----3----------2h3-2-----------0---1---------0h1--0-----------0------------|
F#|--------0--------------0---------------0--------------0--------------------|
B |---------------------------------------------------------------------------|
F#|----3-------3--------------3-------1------1--------------1-----------------|

B |---------------------------------------------------------------------------|
B |-----------------------------------------------------12+-------------------|
B |----7-----------5h7----8--------5---5h7------------------12+---------------|
F#|--------0------------------0--------------0-------------------12+----------|
B |--------------------------------------0-----0------------------------------|
F#|-----------------------7---------------------------------------------------|
B |----3------3---------------------------------------------------------------|

Second time end like this:
B |---------------------------------------------------------------------------|
B |----7-----------5h7--------------------------------------------------------|
F#|--------0------------------------------------------------------------------|
B |---------------------------------------------------------------------------|
F#|---------------------------------------------------------------------------|
B |----3------3---------------------------------------------------------------|

While Git2 plays these open palm muted notes leading into the final chorus:
B |---------------------------------------------------------------------------|
B |---------------------------------------------------------------------------|
F#|---------------------------------------------------------------------------|
B |---------------------------------------------------------------------------|
F#|-0-0-0--0------------0-0-0--0----0-0-0--0----0-0-0-0-0-0-0-0-0-0-0-0-------|
B |-0-0-0--0-0----------0-0-0--0-0--0-0-0--0-0--0-0-0-0-0-0-0-0-0-0-0-0-------|
    * * *  *            * * *  *    * * *  *    * * * * * * * * 

Git 1/2 = 4x Chorus 2

Now again play the octaves longer on the 4th time, just listen to the record for timing ;)

Git 1/2 = 1x Outro 1:
B |---------------------------------------------------------------------------|
B |---------------------------------------------------------------------------|
F#|---------------------------------------------------------------------------|
B |---------------------------------------------------------------------------|
F#|--8--7--5--3---10---8---5---3----------------------------------------------|
B |--8--7--5--3---10---8---5---3--0~~~~------(Slowly lower volume)------------|

Now Git1 plays the clean riff while Git2 does the outro harmonic solo. I haven't tabbed the solo's yet!

Clean outro is played by Git2, just repeat the Post-Solo clean riff 1x

            
            
Suggest correction
Creating personal tab
Creating personal tab
You can edit any tab online and save it as your Personal.

You can edit, replace or remove any tab part or add personal notes – all changes will be seen only by you.

Personal tabs can be accessed anytime from any device, even offline.
Learn more »
Give kudos to tab author, rate the tab!
1 2 3 4 5
comments
print report bad tab
guest
You may want to rate the tab now too:
select rating
Wanna post a correction for this tab? Suggest correction