Oops, an error
Loading. Please wait.

Radical Change solo tab

version 1
version 1

Solo

Whole song

Interactive

232 views 1 this week
no commentswrite comment
1 2 3 4 5
2 more votes to show rating
add to favorites
×
Save as Personal and add changes to this tab that will be seen only by you. Learn more ›
×
You can save this tab as Personal to edit and correct it or add notes. All changes will be seen only by you. Learn more »
launch autoscroll
font size
0
reset
how to read this tab
guitar tuner
edit
Autoscroll
slow
fast
+/-
esc
set tempo
stop
Tremonti - "Radical Change" Solo Tab
Tuning: C# Standard - see below
Tabbed by: jjhand

This is my best guess for the solos in "Radical Change" off the 
Cautierize album. Mark's solo is fairly accurate but there is a bunch 
of tremelo picked notes toward the end so my tab can be used to get 
close to it. Please rate or comment!

Eric's solo (2:56)

C#|--------------------|-----------------------------------------|
G#|------10/12---10~---|---------12-13-15-13-12h13p12h13-12------|
E |-7/---------12------|-7/---14---------------------------14-12-|
B |--------------------|-----------------------------------------|
F#|--------------------|-----------------------------------------|
C#|--------------------|-----------------------------------------|

|---------------------------|-----------------12~~~--|
|-----------------10--------|-17pbr15-12-15----------|
|-12b14~~--12br14----12b14--|------------------------|
|---------------------------|------------------------|
|---------------------------|------------------------|
|---------------------------|------------------------|

|------15-17---------------|-17pbr15b17r15--------------|
|-15-17--------11----------|----------------------------|
|--------------13b15-------|----------------------------|
|--------------------------|----------------------------|
|--------------------------|---------------12b14r*------|
|--------------------------|----------------------------|

|--------------------------|-12~----14~----15~----17~---|-19~------------|
|-17br15p12----------------|-15b17--17b19--18b20--20b22-|----------------|
|----------14b16r----12----|----------------------------|----------------|
|----------------------14--|----------------------------|----------------|
|--------------------------|----------------------------|----------------|
|--------------------------|----------------------------|----------------|


Mark's Solo (starts at 3:46)

|-15-17-b19-17-15-17~-----15-17-|b19-17-15-17~---17pb19-b19r17p15-|
|-------------------------------|---------------------------------|
|-------------------------------|---------------------------------|
|-------------------------------|---------------------------------|
|-------------------------------|---------------------------------|
|-------------------------------|---------------------------------|

|-17-16~~~~~~~~-----|-17-17---------------------------|
|-------------------|------17-15\10-9-----------------|
|-------------------|-----------------9---------------|
|-------------------|-------------------9-7-5-7b9r7-5-|
|-------------------|---------------------------------|
|-------------------|---------------------------------|

|------------------------------|------------------------------14------|
|------------------------------|------------15--19--15--15~-15--15-17-|
|-------------9----12-11~-0-12-|-11b12r11-11--------------------------|
|----------/9---/12------------|--------------------------------------|
|-5b7r5*-----------------------|--------------------------------------|
|------------------------------|--------------------------------------|

    play 6x 
|-(19-14-12)----20-15-12-19-14-12-20-15-12-19-14-12-15-14-12-|
|------------------------------------------------------------|
|------------------------------------------------------------|
|------------------------------------------------------------|
|------------------------------------------------------------|
|------------------------------------------------------------|
  quickly!!

|-15-14-12---------------------------------------------------------|
|---------12-14-15-14-12-------------------------------------------|
|-----------------------11-12-14--9-11-12-12-----------------------|
|-------------------------------------------9-10-12-9-10-----------|
|-------------------------------------------------------12-11-11---|
|---------------------------------------------------------------10-|

back to prechorus before ending


************************************
KEY
| /   slide up
| \   slide down
| h   hammer-on
| p   pull-off
| ~   vibrato
| *   slight pinch harmonic
| x   Mute note
| b   Bend
| pb  Pre-bend
| br  Bend release
| pbr Pre-bend release
| ()  repeat group of notes as required

************************************************************************

            
            
Suggest correction
Creating personal tab
Creating personal tab
You can edit any tab online and save it as your Personal.

You can edit, replace or remove any tab part or add personal notes – all changes will be seen only by you.

Personal tabs can be accessed anytime from any device, even offline.
Learn more »
Give kudos to tab author, rate the tab!
1 2 3 4 5
comments
print report bad tab
guest
You may want to rate the tab now too:
select rating
Wanna post a correction for this tab? Suggest correction