Oops, an error
Loading. Please wait.

Radical Change tab

version 2
version 2

Whole song

Interactive

835 views 9 this week
no commentswrite comment
1 2 3 4 5
1 last vote to show rating
add to favorites
×
Save as Personal and add changes to this tab that will be seen only by you. Learn more ›
×
You can save this tab as Personal to edit and correct it or add notes. All changes will be seen only by you. Learn more »
launch autoscroll
font size
0
reset
how to read this tab
guitar tuner
edit
Autoscroll
slow
fast
+/-
esc
set tempo
stop
Track  : Tremonti - Radical Change
Album  : Cauterize (2015)
Tuning : C# Standard (C# F# B E G# C#) 1,5 steps down from E.

Tabbed by Amerijckbeheerder

Notes:
Since the album came out I noticed people covering this song in Drop C#. 
Although this is possible (and I did it as well before I knew it was the wrong tuning) 
It's just not the "official" way of playing the song. After studying live performances
I decided to give it a shot and tab out the way mark and eric play the song.
It might not be a 100% correct, this is one of my first tabs.

\\Both Guitars 
\Intro 2x (Al notes between the T's should be tremolo picked)

C#|-----------------------------------------
G#|-----------------------------------------
E |-----------------------------------------  play 3x
B |-----------------------------------------
F#|---------------t---------------------t---
C#|-13--12--0--0--12-13-15-12-13-13-12-12---
            p  p     

C#|------------------------------------------------|
G#|------------------------------------------------|
E |------------------------------------------------|
B |------------------------------------------------|
F#|-t------------------------------------------t---|
C#|-13-13-13-13-13-13-13-13-12-12-12-12-10-10-10---|



\\Mark Verse 4x (4th time ends differently)
C#|----------|----------|  -----------------------------|
G#|----------|----------|  -----------------------------|
E |----------|----------|  -----------------------------| play this bar 3x
B |-3--------|-7--------|  -5--5------------------------|
F#|-3--------|-7--------|  -5--5------------------------|
C#|-1--------|-5--------|  -3--3--3-3--0-3-1-0-1-1-0-0--|
                                  p p  p p p p p p p p 

C#|-----------------------------------------------      4th time ends like this---
G#|-----------------------------------------------      --------------------------
E |-----------------------------------------------      --------------------------
B |--all these notes tremolo picked and palm muted      --no palm mute------------
F#|-----------------------------------------------      --------------------------
C#|-3-3-3-3-5-5-5-5-5-7-7-7-7-8-8-8---------------      -3--3--3--3--1--1--1--1---



\\Eric Verse 1 - play Bars A-D 4x
C#|-------------------------------------------| A
G#|-------------------------------------------|
E |-------------------------------------------| play 2x
B |-------------------------------------------|
F#|-----------------t---------------------t---|
C#|-13--13--13--13--12-15-13-12-13-13-12-12---|
             p   p

C#|-------------------------------------------| B
G#|-------------------------------------------|
E |-------------------------------------------| play 2x
B |-------------------------------------------|
F#|-----------------t---------------------t---|
C#|-12--12--12--12--12-15-13-12-13-13-12-12---|
             p   p

C#|-------------------------------------------| C            
G#|-------------------------------------------|             
E |-------------------------------------------| play 3x     
B |-------------------------------------------|             
F#|-------------------------------------------|             
C#|-15--15--15--15--12-15-13-12-13-13-12-12---|             
             p   p

    Bar D, tremelo pick each note as sixteenths (4x each)
C#|-----------------------------| 
G#|-----------------------------|
E |-----------------------------|
B |-----------------------------|
F#|--t----t----t-----t----------|
C#|--15---17---19---20----------|

Before Prechorus, Bar D becomes
C#|--------------------------------|
G#|--------------------------------|
E |--------------------------------|
B |--------------------------------|
F#|--------------------------------|
C#|-15--15--15--15--13--13--13--13-|


\\Both Guitars
\Pre Chorus 1
C#|-----------------------------------------
G#|-----------------------------------------
E |-----------------------------------------
B |-----------------------------------------
F#|-2-2--2-2--2-2--2-2--2-2--2-2--2-2--2-2--
C#|-0-0--0-0--0-0--0-0--0-0--0-0--0-0--0-0--

Eric Repeats this riff, while mark plays this:
(Tremolo pick all notes)
C#|---------------------------------
G#|---------------------------------
E |---------------------------------
B |---------10---9-------10---9---8-
F#|----10------------10-------------
C#|-12------------12----------------

\\Both Guitars 2x
\Chorus 1 (You can figure out the strumming yourself)
C#|---------------------------------------------------------------------------------------
G#|---------------------------------------------------------------------------------------
E |----------------------------------------------------------13--13--13--13--7--7--7--7---
B |-10--10--10--10---12--12--12--12---5--5--5---7--7--7--7---x---x---x---x---x--x--x--x---         
F#|-10--10--10--10---10--10--10--10---5--5--5---7--7--7--7---11--11--11--11--5--5--5--5---         
C#|-8---8---8---8----8---8---8---8----3--3--3---5--5--5--5--------------------------------          

\2nd time end with this:
C#|-----------------------
G#|-----------------------
E |-----------------------
B |-----------------------
F#|-2-2--2-2--2-2--2-2----
C#|-0-0--0-0--0-0--0-0----

\\Now play Intro Riff 2x

\\Verse 2
Mark and Eric are both playing the same as before but only 2x instead of 4x

\\Pre Chorus 2
Same for both guitars
         
\\Chorus 2
Same for both guitars, but at the second ending it ends with only 1 C# powerchord

\\Breakdown 4x (Mark)
C#|-----------------|-------------------------|
G#|-----------------|-------------------------|
E |-------10--------|-------10-----------9----|
B |-----9-----------|-----9----9-------9---9--|
F#|---7-------------|---7------------7--------|
C#|-0---------------|-0------------0----------|

C#|------------0----|-------------------------|
G#|------------0----|-------------------------|
E |-------10--------|-------10-----------9----|
B |-----9-----------|-----9----9-------9---9--|
F#|---7-------------|---7------------7--------|
C#|-0---------------|-0------------0----------|


\\Eric Solo 1
C#|--------------------|-----------------------------------------|
G#|------10/12---10~---|---------12-13-15-13-12h13p12h13-12------|
E |-7/---------12------|-7/---14---------------------------14-12-|
B |--------------------|-----------------------------------------|
F#|--------------------|-----------------------------------------|
C#|--------------------|-----------------------------------------|

C#|---------------------------|-----------------12~~~------------|
G#|-----------------10--------|-17pbr15-12-15--------------------|
E |-12b14~~--12br14----12b14--|----------------------------------|
B |---------------------------|----------------------------------|
F#|---------------------------|----------------------------------|
C#|---------------------------|----------------------------------|

C#|------15-17---------------|-17pbr15b17r15--------------|
G#|-15-17--------11----------|----------------------------|
E |--------------13b15-------|----------------------------|
B |--------------------------|----------------------------|
F#|--------------------------|---------------12b14r*------|
C#|--------------------------|----------------------------|

C#|--------------------------|-12~----14~----15~----17~---|-19~------------|
G#|-17br15p12----------------|-15b17--17b19--18b20--20b22-|----------------|
E |----------14b16r----12----|----------------------------|----------------|
B |----------------------14--|----------------------------|----------------|
F#|--------------------------|----------------------------|----------------|
C#|--------------------------|----------------------------|----------------|

\\ Mark's Solo Rhythm 4x
C#|-------------|---------------------|------------------
G#|-------------|---------------------|------------------
E |-------------|---------------------|------------------
B |-------------|---------------------|------------------
F#|-------3-----|-10-10-10-10\8--10---|-5-5-5-5/7--5-----
C#|-0-0-0-1-----|-8--8--8--8-\6--8----|-3-3-3-3/5--3-----
    p p p         p  p  p               p p p   

\\Mark Post-solo
Play intro riff, but at the 2nd time end with 2 C# Powerchords instead of tremolo picking 12/10

\\Eric Post-solo
Play intro riff but start at the second beat (You'll hear when)

\\Chorus 3
Same for both guitars

\\Mark Solo 2
|-15-17-b19-17-15-17~-----15-17-|b19-17-15-17~---17pb19-b19r17p15-|
|-------------------------------|---------------------------------|
|-------------------------------|---------------------------------|
|-------------------------------|---------------------------------|
|-------------------------------|---------------------------------|
|-------------------------------|---------------------------------|

|-17-16~~~~~~~~-----|-17-17---------------------------|
|-------------------|------17-15\10-9-----------------|
|-------------------|-----------------9---------------|
|-------------------|-------------------9-7-5-7b9r7-5-|
|-------------------|---------------------------------|
|-------------------|---------------------------------|

|------------------------------|------------------------------14------|
|------------------------------|------------15--19--15--15~-15--15-17-|
|-------------9----12-11~-0-12-|-11b12r11-11--------------------------|
|----------/9---/12------------|--------------------------------------|
|-5b7r5*-----------------------|--------------------------------------|
|------------------------------|--------------------------------------|

    play 6x 
|-(19-14-12)----20-15-12-19-14-12-20-15-12-19-14-12-15-14-12-|
|------------------------------------------------------------|
|------------------------------------------------------------|
|------------------------------------------------------------|
|------------------------------------------------------------|
|------------------------------------------------------------|
 
 Some of these should be tremolo picked, you'll have to figure out yourself wich ones.
|-15-14-12---------------------------------------------------------|
|---------12-14-15-14-12-------------------------------------------|
|-----------------------11-12-14--9-11-12-12-----------------------|
|-------------------------------------------9-10-12-9-10-----------|
|-------------------------------------------------------12-11-11---|
|---------------------------------------------------------------10-|

\\Eric Solo Rhythm 1
Play Chorus

\\Post Chorus
Mark/Eric play pre-chorus leading into the outro which is just this:

C#|-----------------------
G#|-----------------------
E |-----------------------
B |-----------------------
F#|-2-2--2-2--2-2--2-2----
C#|-0-0--0-0--0-0--0-0----


Suggest correction
Creating personal tab
Creating personal tab
You can edit any tab online and save it as your Personal.

You can edit, replace or remove any tab part or add personal notes – all changes will be seen only by you.

Personal tabs can be accessed anytime from any device, even offline.
Learn more »
Give kudos to tab author, rate the tab!
1 2 3 4 5
comments
print report bad tab
guest
You may want to rate the tab now too:
select rating
Wanna post a correction for this tab? Suggest correction