Oops, an error
Loading. Please wait.

The Cage tab

version 1
version 1

Whole song

  • Full guitar tab of 'The Cage'. Use upstrokes where... Show more

Interactive

226 views 3 this week
no commentswrite comment
1 2 3 4 5
x 4
add to favorites
×
Save as Personal and add changes to this tab that will be seen only by you. Learn more ›
×
You can save this tab as Personal to edit and correct it or add notes. All changes will be seen only by you. Learn more »
launch autoscroll
font size
0
reset
how to read this tab
guitar tuner
edit
Autoscroll
slow
fast
+/-
esc
set tempo
stop
About this tab version
Full guitar tab of 'The Cage'. Use upstrokes where it is beneficial in the riffs. Please rate or comment. Was this info helpful? Yes No
Tremonti — The Cage
Tuning - Drop B
tabbed by jjhand



[Intro]

    Guitar 1 part
C#|--------------------------------------|--------------------------------------------|
G#|--------------------------------------|--------------------------------------------|
E |--------------------------------------|--------------------------------------------|
B |-10p0----------10p0---------10p0------|-10p0----------10p0-------------------------|  play 4x
F#|------12p0-----------------------12p0-|------12p0----------------------------------|
B |-----------0--------0-0-0-------------|-----------0--------10-10-10-10-12-12-12-12-|


    Guitar 2, on repeats 3 & 4
C#|---------------------------------------------------------------------------|
G#|-15------------------------------------------------------------------------|
E |------hold-----------------------------------------------------------------|
B |-12------------------------------------------------------------------------|
F#|---------------------------------------------------------------------------|
B |---------------------------------------------------------------------------|



[Verse]
    Both Guitars:

C#|----------------------------------|----------------------------------|
G#|----------------------------------|----------------------------------|
E |----------------------------------|----------------------------------|
B |----------------------------------|----------------------------------|
F#|----------------------------------|----------------------------------|
B |-7-7-7-7-7-7-7-7-7-7-7-7-7-7-7-7--|-5-5-5-5-5-5-5-5-5-5-5-5-5-5-5-5--|

C#|--------------------------------------|--------------------------------------------|
G#|--------------------------------------|--------------------------------------------|
E |--------------------------------------|--------------------------------------------|
B |-10p0----------10p0---------10p0------|-10p0----------10p0-------------------------|
F#|------12p0-----------------------12p0-|------12p0----------------------------------|
B |-----------0--------0-0-0-------------|-----------0--------10-10-10-10-12-12-12-12-|

play full Verse 4x

Lyrics:
"View the world a victim on your race
Chose to take for granted everything
Created this division by yourself
Search and you will find there's no one else"



[Prechorus] 
    Guitar 1
C#|-----------------------------------------|-------------------------------------------------|
G#|-----------------------------------------|-------------------------------------------------|
E |-----------------------------------------|-------------------------------------------------|
B |-----------------------------------------|-------------------------------------------------|
F#|-----------------------------------------|-------------------------------------------------|
B |-8--8--8--8--8--8--8--8--7-7-7-7-7-7-7-7-|-5--5--5--5--5--5--5--5--3--3--3--3--3--3--3--3--|
  |
  | Guitar 2
C#|-10-10-10-10-10-10-10-10-9-9-9-9-9-9-9-9-|-------------------------------------------------|
G#|-----------------------------------------|-11-11-11-11-11-11-11-11-10-10-10-10-10-10-10-10-|
E |-7--7--7--7--7--7--7--7--6-6-6-6-6-6-6-6-|-------------------------------------------------|
B |-----------------------------------------|-8--8--8--8--8--8--8--8--7--7--7--7--7--7--7--7--|
F#|-----------------------------------------|-------------------------------------------------|
B |-----------------------------------------|-------------------------------------------------|
    "Theres   no             one              there                   at              all"

    Guitar 1
C#|-------------------------------------------------|----------------------------------------|
G#|-------------------------------------------------|----------------------------------------|
E |-------------------------------------------------|----------------------------------------|
B |-------------------------------------------------|----------------------------------------|
F#|-------------------------------------------------|-4--4--4--4--4--4--4--4--4--------------|
B |-7--7--7--7--7--7--7--7--7--7--7--7--7--7--7--7--|----------------------------------------|
  |
  | Guitar 2
C#|-9--9--9--9--9--9--9--9--9--9--9--9--9--9--9--9--|-12-12-12-12-12-12-12-12-12-------------|
G#|-------------------------------------------------|----------------------------------------|
E |-6--6--6--6--6--6--6--6--6--6--6--6--6--6--6--6--|-9--9--9--9--9--9--9--9--9--------------|
B |-------------------------------------------------|----------------------------------------|
F#|-------------------------------------------------|----------------------------------------|
B |-------------------------------------------------|----------------------------------------|



[Chorus 1]
    Guitar 1
C#|---------------------------------|----------------------------------|
G#|---------------------------------|----------------------------------|
E |---------------------------------|----------------------------------|
B |-5---5---5---5---4---4---4---4---|-3---3---3---3---2---2---2---2----|
F#|-5---5---5---5---5---5---5---5---|-3---3---3---3---3---3---3---3----|
B#|-0---0---0---0---0---0---0---0---|----------------------------------|
  |
  | Guitar 2
C#|-17--17--17--17--17--17--17--17--|-17--15--15--15--15--15--15--15---|
G#|---------------------------------|----------------------------------|
E |---------------------------------|----------------------------------|
B |---------------------------------|----------------------------------|
F#|---------------------------------|----------------------------------|
B |---------------------------------|----------------------------------|
    "Nothing        matters,                       you know who is" 

    Guitar 1
C#|----------------------------------|---------------------------------|
G#|----------------------------------|---------------------------------|
E |----------------------------------|---------------------------------|
B |----------------------------------|-4---4---4---4---4---4---4---4---|
F#|-5---5---5---5---5---5---5---5----|-5---5---5---5---5---5---5---5---|
B |-5---5---5---5---5---5---5---5----|-0---0---0---0---0---0---0---0---|
  |
  | Guitar 2
C#|-18--18--18--18--18--15--15--15---|-17--17--17--17--17--17--17--17--|
G#|----------------------------------|---------------------------------|
E |----------------------------------|---------------------------------|
B |----------------------------------|---------------------------------|
F#|----------------------------------|---------------------------------|
B |----------------------------------|---------------------------------|
   "right   when   the    fight   is   won."

    Guitar 1
C#|---------------------------------|----------------------------------|
G#|---------------------------------|----------------------------------|
E |---------------------------------|----------------------------------|
B |-5---5---5---5---4---4---4---4---|-3---3---3---3---2---2---2---2----|
F#|-5---5---5---5---5---5---5---5---|-3---3---3---3---3---3---3---3----|
B#|-0---0---0---0---0---0---0---0---|----------------------------------|
  |
  | Guitar 2
C#|-17--17--17--17--17--17--17--17--|-17--15--15--15--15--15--15--15---|
G#|---------------------------------|----------------------------------|
E |---------------------------------|----------------------------------|
B |---------------------------------|----------------------------------|
F#|---------------------------------|----------------------------------|
B |---------------------------------|----------------------------------|
   "The cage, it shatters                    your    shelter    is"


    Guitar 1
C#|----------------------------------|
G#|----------------------------------|
E |----------------------------------|
B |----------------------------------|
F#|-5---5---5---5---5---5---5---5----|
B |-5---5---5---5---5---5---5---5----|
  |
  | Guitar 2
C#|-18------18------18------15-------|
G#|----------------------------------|
E |----------------------------------|
B |----------------------------------|
F#|----------------------------------|
B |----------------------------------|
   "lost and your day is done"


[Chorus 1 Ending]
C#|--------------------------------------|------------------------------------|
G#|--------------------------------------|------------------------------------|
E |--------------------------------------|------------------------------------|
B |-10p0----------10p0---------10p0------|-10p0----------10p0-----------------| 
F#|------12p0-----------------------12p0-|------12p0--------------------------|
B |-----------0--------0-0-0-------------|-----------0--------0-0-0-0-0-------|



[Verse 2]
    Both Guitars:

C#|----------------------------------|----------------------------------|
G#|----------------------------------|----------------------------------|
E |----------------------------------|----------------------------------|
B |----------------------------------|----------------------------------|
F#|----------------------------------|----------------------------------|
B |-7-7-7-7-7-7-7-7-7-7-7-7-7-7-7-7--|-5-5-5-5-5-5-5-5-5-5-5-5-5-5-5-5--|

C#|--------------------------------------|--------------------------------------------|
G#|--------------------------------------|--------------------------------------------|
E |--------------------------------------|--------------------------------------------|
B |-10p0----------10p0---------10p0------|-10p0----------10p0-------------------------|
F#|------12p0-----------------------12p0-|------12p0----------------------------------|
B |-----------0--------0-0-0-------------|-----------0--------10-10-10-10-12-12-12-12-|

play full Verse 2x

Lyrics:
"Consequence, it bit you, ran you through
Found yourself with nothing else to lose"



[Prechorus 2] 
    Guitar 1
C#|-----------------------------------------|-------------------------------------------------|
G#|-----------------------------------------|-------------------------------------------------|
E |-----------------------------------------|-------------------------------------------------|
B |-----------------------------------------|-------------------------------------------------|
F#|-----------------------------------------|-------------------------------------------------|
B |-8--8--8--8--8--8--8--8--7-7-7-7-7-7-7-7-|-5--5--5--5--5--5--5--5--3--3--3--3--3--3--3--3--|
  |
  | Guitar 2
C#|-10-10-10-10-10-10-10-10-9-9-9-9-9-9-9-9-|-------------------------------------------------|
G#|-----------------------------------------|-11-11-11-11-11-11-11-11-10-10-10-10-10-10-10-10-|
E |-7--7--7--7--7--7--7--7--6-6-6-6-6-6-6-6-|-------------------------------------------------|
B |-----------------------------------------|-8--8--8--8--8--8--8--8--7--7--7--7--7--7--7--7--|
F#|-----------------------------------------|-------------------------------------------------|
B |-----------------------------------------|-------------------------------------------------|
    "Theres   no             one              there                   at              all"

    Guitar 1
C#|-------------------------------------------------|----------------------------------------|
G#|-------------------------------------------------|----------------------------------------|
E |-------------------------------------------------|----------------------------------------|
B |-------------------------------------------------|----------------------------------------|
F#|-------------------------------------------------|-4--4--4--4--4--4--4--4--4--------------|
B |-7--7--7--7--7--7--7--7--7--7--7--7--7--7--7--7--|----------------------------------------|
  |
  | Guitar 2
C#|-9--9--9--9--9--9--9--9--9--9--9--9--9--9--9--9--|-12-12-12-12-12-12-12-12-12-------------|
G#|-------------------------------------------------|----------------------------------------|
E |-6--6--6--6--6--6--6--6--6--6--6--6--6--6--6--6--|-9--9--9--9--9--9--9--9--9--------------|
B |-------------------------------------------------|----------------------------------------|
F#|-------------------------------------------------|----------------------------------------|
B |-------------------------------------------------|----------------------------------------|



[Chorus 2]
    Guitar 1
C#|---------------------------------|----------------------------------|
G#|---------------------------------|----------------------------------|
E |---------------------------------|----------------------------------|
B |-5---5---5---5---4---4---4---4---|-3---3---3---3---2---2---2---2----|
F#|-5---5---5---5---5---5---5---5---|-3---3---3---3---3---3---3---3----|
B#|-0---0---0---0---0---0---0---0---|----------------------------------|
  |
  | Guitar 2
C#|-17--17--17--17--17--17--17--17--|-17--15--15--15--15--15--15--15---|
G#|---------------------------------|----------------------------------|
E |---------------------------------|----------------------------------|
B |---------------------------------|----------------------------------|
F#|---------------------------------|----------------------------------|
B |---------------------------------|----------------------------------|
    "Nothing        matters,                       you know who is" 


    Guitar 1
C#|----------------------------------|---------------------------------|
G#|----------------------------------|---------------------------------|
E |----------------------------------|---------------------------------|
B |----------------------------------|-4---4---4---4---4---4---4---4---|
F#|-5---5---5---5---5---5---5---5----|-5---5---5---5---5---5---5---5---|
B |-5---5---5---5---5---5---5---5----|-0---0---0---0---0---0---0---0---|
  |
  | Guitar 2
C#|-18--18--18--18--18--15--15--15---|-17--17--17--17--17--17--17--17--|
G#|----------------------------------|---------------------------------|
E |----------------------------------|---------------------------------|
B |----------------------------------|---------------------------------|
F#|----------------------------------|---------------------------------|
B |----------------------------------|---------------------------------|
   "right   when   the    fight   is   won."


    Guitar 1
C#|---------------------------------|----------------------------------|
G#|---------------------------------|----------------------------------|
E |---------------------------------|----------------------------------|
B |-5---5---5---5---4---4---4---4---|-3---3---3---3---2---2---2---2----|
F#|-5---5---5---5---5---5---5---5---|-3---3---3---3---3---3---3---3----|
B#|-0---0---0---0---0---0---0---0---|----------------------------------|
  |
  | Guitar 2
C#|-17--17--17--17--17--17--17--17--|-17--15--15--15--15--15--15--15---|
G#|---------------------------------|----------------------------------|
E |---------------------------------|----------------------------------|
B |---------------------------------|----------------------------------|
F#|---------------------------------|----------------------------------|
B |---------------------------------|----------------------------------|
   "The cage,    it shatters                    your    shelter    is"


C#|----------------------------------|---------------------------------|
G#|----------------------------------|---------------------------------|
E |----------------------------------|---------------------------------|
B |----------------------------------|-0---0---0---0---0---0---0---0---|
F#|-5---5---5---5---5---5---5---5----|-0---0---0---0---0---0---0---0---|
B |-5---5---5---5---5---5---5---5----|-0---0---0---0---0---0---0---0---|
  |
  | Guitar 2
C#|-18------18------18------15-------|-17------17------17------17------|
G#|----------------------------------|---------------------------------|
E |----------------------------------|---------------------------------|
B |----------------------------------|---------------------------------|
F#|----------------------------------|---------------------------------|
B |----------------------------------|---------------------------------|
   "lost   and    the day    is      done"



[Slow Bridge]
C#|----------------------------|------------------------------|
G#|----------------------------|------------------------------|
E |----------------------------|------------------------------|
B |-0------------6-------------|-3------5------4--------------|
F#|-0------------6-------------|-3------5------4----0----0----|
B |-0------------6-------------|-3------5------4----0----0----|
                                                    PM   PM

C#|----------------------------|------------------------------|
G#|----------------------------|------------------------------|
E |----------------------------|------------------------------|
B |-0---------6---5------------|-3------5------4--------------|
F#|-0---------6---5------------|-3------5------4----0----0----|
B |-0---------6---5------------|-3------5------4----0----0----|
                                                    PM   PM  

C#|----------------------------|------------------------------|
G#|----------------------------|------------------------------|
E |----------------------------|------------------------------|
B |-0------------6-------------|-3------5------4--------------|
F#|-0------------6-------------|-3------5------4----0----12\--|
B |-0------------6-------------|-3------5------4----0----12\--|
                                                    PM  

C#|----------------------------|------------------------------------|
G#|----------------------------|------------------------------------|
E |----------------------------|------------------------------------|
B |-0---------6---5------------|-3------5---------------------------|
F#|-0---------6---5------------|-3------5----0--0--0--0--0--0--0--0-|
B |-0---------6---5------------|-3------5----0--0--0--0--0--0--0--0-|
                                             PM *******************   


[Solo]
C#|-------------------------------------------|--------15---------------17-------------|
G#|--------------------------------15-15------|-15-15----15--17-18-17-----18-17---17---|
E |------------14-14-----14-14----------14-14-|------14----14--------17--------17---17-|
B |-10-12-15-14-----15-15-----15-15-----------|----------------------------------------|
F#|-------------------------------------------|----------------------------------------|
B |-------------------------------------------|----------------------------------------|

C#|-----------17---10--------------------|-----------------------------------------|
G#|-17~-----------------10---------------|-10~-------------------------------------|
E |------17------------------12b14rPH----|-----------------12b14rPH-12p10----------|
B |--------------------------------------|--------------------------------12p10----|
F#|--------------------------------------|--------------------------------------12-|
B |--------------------------------------|-----------------------------------------|

C#|-----------------------------------------|-------13-12-10--------------------------|
G#|--------------------------------10-------|-10-13----------13-10--------------------|
E |--------------------10h12--10h12--10--12-|---------------------13-10-12b13r12-10---|
B |--------10h12--10h12---------------------|--------------------------------------12-|
F#|---10h12---------------------------------|-----------------------------------------|
B |-----------------------------------------|-----------------------------------------|

C#|-----------------------------------------|-10--------------------------------------|
G#|-------10-13-------------10-13-----------|-10-10-10-12b13--------------------------|
E |-12b14-------10~---12b14-------12b13~----|-----------------12-10--12-10------------|
B |-----------------------------------------|-----------------------------12-10-------|
F#|-----------------------------------------|----------------------------------12-10--|
B |-----------------------------------------|-----------------------------------------|

C#|----------------------------------|-----------------------------------|
G#|----------------------------------|-----------------------------------|
E |----------------------------------|-----------------------------------|
B |----------------------------------|-----------------------------------|
F#|------3----5----/8----5~-------8--|-8---5-8---5-8--5-5-8--5-5-8--5-8--|
B |-0--------------------------------|-----------------------------------|

C#|-------------------------------|---------------5h8p5---8h10p8-------|
G#|-------------------------6---5-|-6p5---5h8p5---------8--------10----|
E |------5---5-7b9r7p5-7----------|-----7-------7-------------------7--|
B |-/7-----7----------------------|------------------------------------|
F#|-------------------------------|------------------------------------|
B |-------------------------------|------------------------------------|

C#|-------10-10---------10-10---------10----|-------10----10----------10----10---------10---|
G#|-------10-10---------10-10---------10----|-----9-10p9--10p9------9-10p9--10p9-----9-10---|
E |-----------------------------------------|-10----------------10----------------10--------|
B |-10h12---------10h12---------10h12-------|-----------------------------------------------|
F#|-----------------------------------------|-----------------------------------------------|
B |-----------------------------------------|-----------------------------------------------|

C#|-10----------10-------------------------------|-------------------------------------------------|-15b17---|
G#|-10----12----10-------------------------------|-------------12-10-------------------------------|---------|
E |-10----12----10-------------------------------|-------10-12-12-10----12b14r12-10----------10----|---------|
B |----12----12----12p10----12-10-------10-12----|-10-12----------------------------10----10----12-|---------|
F#|----------------------12-------12-10----------|-------------------------------------12----------|---------|
B |----------------------------------------------|-------------------------------------------------|---------|



[Solo Rhythm]
C#|---------------------------------|---------------------------------|
G#|---------------------------------|---------------------------------|
E |---------------------------------|---------------------------------|
B |---------------------------------|---------------------------------|
F#|---------------------------------|---------------------------------|
B |-0-0-0-0-0-0-0-0-0-0-0-0-0-0-0-0-|-6-6-6-6-6-6-6-6-6-6-6-6-6-6-6-6-|

C#|-----------------------------|------------------------------|
G#|-----------------------------|------------------------------|
E |-----------------------------|------------------------------|
B |-----------------------------|------------------------------|
F#|-----------------------------|------------------------------|
B |-3---3---3-----5---5---5-----|-4---4---4-----0---0---0------|

play Solo Rhythm 4x



[Final Chorus]
    Guitar 1
C#|---------------------------------|----------------------------------|
G#|---------------------------------|----------------------------------|
E |---------------------------------|----------------------------------|
B |-5---5---5---5---4---4---4---4---|-3---3---3---3---2---2---2---2----|
F#|-5---5---5---5---5---5---5---5---|-3---3---3---3---3---3---3---3----|
B#|-0---0---0---0---0---0---0---0---|----------------------------------|
  |
  | Guitar 2
C#|-17--17--17--17--17--17--17--17--|-17--15--15--15--15--15--15--15---|
G#|---------------------------------|----------------------------------|
E |---------------------------------|----------------------------------|
B |---------------------------------|----------------------------------|
F#|---------------------------------|----------------------------------|
B |---------------------------------|----------------------------------|
    "Nothing        matters,                       you know who is" 


    Guitar 1
C#|----------------------------------|---------------------------------|
G#|----------------------------------|---------------------------------|
E |----------------------------------|---------------------------------|
B |----------------------------------|-4---4---4---4---4---4---4---4---|
F#|-5---5---5---5---5---5---5---5----|-5---5---5---5---5---5---5---5---|
B |-5---5---5---5---5---5---5---5----|-0---0---0---0---0---0---0---0---|
  |
  | Guitar 2
C#|-18--18--18--18--18--15--15--15---|-17--17--17--17--17--17--17--17--|
G#|----------------------------------|---------------------------------|
E |----------------------------------|---------------------------------|
B |----------------------------------|---------------------------------|
F#|----------------------------------|---------------------------------|
B |----------------------------------|---------------------------------|
   "right   when   the    fight   is   won."


    Guitar 1
C#|---------------------------------|----------------------------------|
G#|---------------------------------|----------------------------------|
E |---------------------------------|----------------------------------|
B |-5---5---5---5---4---4---4---4---|-3---3---3---3---2---2---2---2----|
F#|-5---5---5---5---5---5---5---5---|-3---3---3---3---3---3---3---3----|
B#|-0---0---0---0---0---0---0---0---|----------------------------------|
  |
  | Guitar 2
C#|-17--17--17--17--17--17--17--17--|-17--15--15--15--15--15--15--15---|
G#|---------------------------------|----------------------------------|
E |---------------------------------|----------------------------------|
B |---------------------------------|----------------------------------|
F#|---------------------------------|----------------------------------|
B |---------------------------------|----------------------------------|
   "The cage,    it shatters                    your    shelter    is"


C#|----------------------------------|---------------------------------|
G#|----------------------------------|---------------------------------|
E |----------------------------------|---------------------------------|
B |----------------------------------|-0---0---0---0---0---0---0---0---|
F#|-5---5---5---5---5---5---5---5----|-0---0---0---0---0---0---0---0---|
B |-5---5---5---5---5---5---5---5----|-0---0---0---0---0---0---0---0---|
  |
  | Guitar 2
C#|-18------18------18------15-------|-17------17------17------17------|
G#|----------------------------------|---------------------------------|
E |----------------------------------|---------------------------------|
B |----------------------------------|---------------------------------|
F#|----------------------------------|---------------------------------|
B |----------------------------------|---------------------------------|
   "lost   and    the day    is      done"


    Guitar 1
C#|---------------------------------|----------------------------------|
G#|---------------------------------|----------------------------------|
E |---------------------------------|----------------------------------|
B |-5---5---5---5---4---4---4---4---|-3---3---3---3---2---2---2---2----|
F#|-5---5---5---5---5---5---5---5---|-3---3---3---3---3---3---3---3----|
B#|-0---0---0---0---0---0---0---0---|----------------------------------|
  |
  | Guitar 2
C#|-17--17--17--17--17--17--17--17--|-17--15--15--15--15--15--15--15---|
G#|---------------------------------|----------------------------------|
E |---------------------------------|----------------------------------|
B |---------------------------------|----------------------------------|
F#|---------------------------------|----------------------------------|
B |---------------------------------|----------------------------------|
    "Chose     to    listen,                      to    only    the" 


    Guitar 1
C#|----------------------------------|---------------------------------|
G#|----------------------------------|---------------------------------|
E |----------------------------------|---------------------------------|
B |----------------------------------|-4---4---4---4---4---4---4---4---|
F#|-5---5---5---5---5---5---5---5----|-5---5---5---5---5---5---5---5---|
B |-5---5---5---5---5---5---5---5----|-0---0---0---0---0---0---0---0---|
  |
  | Guitar 2
C#|-18--18--18--18--18--15--15--15---|-17--17--17--17--17--17--17--17--|
G#|----------------------------------|---------------------------------|
E |----------------------------------|---------------------------------|
B |----------------------------------|---------------------------------|
F#|----------------------------------|---------------------------------|
B |----------------------------------|---------------------------------|
    "fools,    oh this   bind  you're  in"


    Guitar 1
C#|---------------------------------|----------------------------------|
G#|---------------------------------|----------------------------------|
E |---------------------------------|----------------------------------|
B |-5---5---5---5---4---4---4---4---|-3---3---3---3---2---2---2---2----|
F#|-5---5---5---5---5---5---5---5---|-3---3---3---3---3---3---3---3----|
B#|-0---0---0---0---0---0---0---0---|----------------------------------|
  |
  | Guitar 2
C#|-17--17--17--17--17--17--17--17--|-17--15--15--15--15--15--15--15---|
G#|---------------------------------|----------------------------------|
E |---------------------------------|----------------------------------|
B |---------------------------------|----------------------------------|
F#|---------------------------------|----------------------------------|
B |---------------------------------|----------------------------------|
   "Take         forever,                        to   swallow    the"

    Guitar 1
C#|----------------------------------|---------------------------------|
G#|----------------------------------|---------------------------------|
E |----------------------------------|---------------------------------|
B |----------------------------------|---------------------------------|
F#|-5---5---5---5---5---5---5---5----|---------------------------------|
B |-5---5---5---5---5---5---5---5----|-10--10--10--10--10--10--10b12---|
  |
  | Guitar 2
C#|-18------18------18------18-------|---------------------------------|
G#|----------------------------------|---------------------------------|
E |----------------------------------|---------------------------------|
B |----------------------------------|---------------------------------|
F#|----------------------------------|---------------------------------|
B |----------------------------------|---------------------------------|
   "pride,   and    it      dies,              and    it   dies   within"



[Outro]
C#|--------------------------------------|--------------------------------------------|
G#|--------------------------------------|--------------------------------------------|
E |--------------------------------------|--------------------------------------------|
B |-10p0----------10p0---------10p0------|-10p0----------10p0-------------------------|  play 3x
F#|------12p0-----------------------12p0-|------12p0----------------------------------|
B |-----------0--------0-0-0-------------|-----------0--------10-10-10-10-12-12-12-12-|

C#|--------------------------------------|--------------------------------------------|
G#|--------------------------------------|--------------------------------------------|
E |--------------------------------------|--------------------------------------------|
B |-10p0----------10p0---------10p0------|-10p0----------10p0-------------------------|
F#|------12p0-----------------------12p0-|------12p0----------------------------------|
B |-----------0--------0-0-0-------------|-----------0---------0--0--0--0--0----------|


************************************

| h   Hammer-on
| p   Pull-off
| r   Release
| b   Bend
| /   Slide up
| \   Slide down
| ~   Vibrato
| PM  Palm mute
| PH  Pinch Harmonic - occurs on bends in this solo
************************************

            
            
Suggest correction
Creating personal tab
Creating personal tab
You can edit any tab online and save it as your Personal.

You can edit, replace or remove any tab part or add personal notes – all changes will be seen only by you.

Personal tabs can be accessed anytime from any device, even offline.
Learn more »
comments
print report bad tab
guest
You may want to rate the tab now too:
select rating
Wanna post a correction for this tab? Suggest correction