Oops, an error
Loading. Please wait.

Tore My Heart Out tab

version 1
version 1

Whole song

Interactive

1,855 views 18 this week
no commentswrite comment
1 2 3 4 5
x 3
add to favorites
×
Save as Personal and add changes to this tab that will be seen only by you. Learn more ›
×
You can save this tab as Personal to edit and correct it or add notes. All changes will be seen only by you. Learn more »
launch autoscroll
font size
0
reset
how to read this tab
guitar tuner
edit
Autoscroll
slow
fast
+/-
esc
set tempo
stop
Artist: Tremonti
Song: 'Tore My Heart Out', from 'Dust' Album
Tuning: Drop Bb (Bb F Bb Eb G C), 2 guitars
Tabbed by: jjhand


Nice melodic song by Mark off of Dust with some nice heavy riffs. He played several songs 
previously in Drop B, but guitars are tuned down an extra fret this time. I looked at using 
the Bb tuning common to his Alter Bridge work but the Intro would not play well. Solo is 
really good and not too difficult this time. Please rate or comment.


Intro/Verse Riff 1 - let notes ring, Guitar 1
C |---------------------------------|-------------------------------|
G |---------------------------------|-------------------------------|
Eb|---------------------------------|-------------------------------|
Bb|-----3---2h3---------2---2h3-2---|-----2---2h3---------2---2h3-0-|
F |-3-----3-----3---3-----3---------|-1-----1-----1---1-----1-------|
Bb|---------------------------------|-------------------------------|

|---------------------------------|-------------------------------|
|---------------------------------|-------------------------------|
|---------------------------------|-------------------------------|
|-----2---2h3---------2---2h3-----|-----2---2h3---------2h3/5-----|
|---------------------------------|-------------------------------|
|-0-----0-----0---0-----0-----0---|-0-----0-----0---0-------------|


For verse, start by playing above riff 2x

Lyrics:
"Show your will and do your part
or be blind right from the start
take your time and do it well
cause the fallout can be hell"   


Guitar 2 during Verse Riff 1
|-8---------------|-6---------------|-5--------------|-(5)-----------|
|-----------------|-----------------|----------------|---------------|
|-----------------|-----------------|----------------|---------------|
|-----------------|-----------------|----------------|---------------|
|-----------------|-----------------|----------------|---------------|
|-----------------|-----------------|----------------|---------------|



Verse Riff 2 - both guitars unison, split parts on harmony notes
|------------------------------|------------------------------|
|------------------------------|------------------------------|
|------------------------------|------------------------------|
|-5----------------------------|-3----------------------------|
|-3----------------------------|-1----------------------------|
|------------------------------|------------------------------|
 "Go and find, find the one     till you find the will is strong"

|---------------------------------------------|
|---------------------------------------------|
|---------------------------------------------|
|-----5---5h7---------------5---5h7-----------|
|-0-0-7---7h8---0-0-0-0-0-0-7---7h8---0-0-0-0-|
|-0-0-----------0-0-0-0-0-0-----------0-0-0-0-|
PM* *           * * * * * *           * * * *

|------------------------------------------|
|------------------------------------------|
|------------------------------------------|
|-----5---5h7---------------5---5h7--------|
|-0-0-7---7h8---0-0-0-0-0-0-7---7h8--------|
|-0-0-----------0-0-0-0-0-0-----------0----|
PM* *           * * * * * *              

|------------------------------|------------------------------|
|------------------------------|------------------------------|
|------------------------------|------------------------------|
|-5----------------------------|-3----------------------------|
|-3----------------------------|-1----------------------------|
|------------------------------|------------------------------|
 "Hide in shadows, who would know and the fire only grows"

|---------------------------------------------|
|---------------------------------------------|
|---------------------------------------------|
|-----5---5h7---------------5---5h7-----------|
|-0-0-7---7h8---0-0-0-0-0-0-7---7h8---0-0-0-0-|
|-0-0-----------0-0-0-0-0-0-----------0-0-0-0-|
PM* *           * * * * * *           * * * *

|---------------------------------------|
|---------------------------------------|
|---------------------------------------|
|-----5---5h7---------------------------|
|-0-0-7---7h8---0-0-0-0-0-0-3-----------|
|-0-0-----------0-0-0-0-0-0-------0-----|
PM* *           * * * * * *              



Prechorus
|---------------------------------|----------------------------------|
|---------------------------------|----------------------------------|
|---------5-----------------------|----------------------------------|
|---------------------------------|----------------------------------|
|-6-----3-------6-5-0-------6-5-0-|---------3-------3----------------|
|---0-0-----0-0-------0-0-0-------|-0-0-0-1---0-0-1---1-0---00000000-|
PM  * *     * *         * *           * *     * *           ********

|---------------------------------|-------------------------------|
|---------------------------------|-------------------------------|
|---------5-----------------------|-------------------------------|
|---------------------------------|-------------------------------|
|-6-----3-------6-5-0-------6-5-0-|---------3-------3-------------|
|---0-0-----0-0-------0-0-0-------|-0-0-0-1---0-0-1---1-0----0----|
PM  * *     * *         * *           * *     * *           



Chorus - Strum the shown chords in a 16th note pattern
  Gb5                                F5               
|---------------------------------|-----------------------------------|
|---------------------------------|-----------------------------------|
|--15-----------------------------|--14-------------------------------|
|--15-----------------------------|--14-------------------------------|
|--13-----------------------------|--12-------------------------------|
|---------------------------------|-----------------------------------|
|
| Guitar 2
|--13TP---------------------------|--12TP-----------------------------|
|---------------------------------|-----------------------------------|
|---------------------------------|-----------------------------------|
|---------------------------------|-----------------------------------|
|---------------------------------|-----------------------------------|
|---------------------------------|-----------------------------------|
   "You tore my heart out          took it all away"  

  Db5             Eb5               Bb5
|---------------------------------|---------------------------------|
|---------------------------------|---------------------------------|
|-10--------------12--------------|-7-------------------------------|
|-10--------------12--------------|-7-------------------------------|  play chorus bars 2x 
|-8---------------10--------------|-5-------------------------------|  on 2nd time, hold out the Bb5 chord
|---------------------------------|-0-------------------------------|
|
| Guitar 2
|---------------------------------|---------------------------------|
|-13-hold-------------------------|---------------------------------|
|---------------------------------|-14-hold-------------------------|
|---------------------------------|---------------------------------|
|---------------------------------|---------------------------------|
|---------------------------------|---------------------------------|
  "Is it so bad now?     Is it too late?" 




Lead part before Verse 2 - guitar 2
|-----------------------------|---------------------------|
|-15~-------------13h15-13----|-(13)---------------13b15r-|
|-----------------------------|---------------------------|
|-----------------------------|---------------------------|
|-----------------------------|---------------------------|
|-----------------------------|---------------------------|

|-----------------------------|---------------------------|
|-----------------------------|---------------------------|
|-14--------------------12\10-|-12p10h12---------10-------|
|-----------------------------|--------------------10/12--|
|-----------------------------|---------------------------|
|-----------------------------|---------------------------|




Play Verse Riff 1 and Verse Riff 2 Again

Lyrics:
"Looking back who do you love
find what's taken, what is lost
Gain your courage only when
we all face the world again"

"Go and find, find the one
who defies all that was
going back we reach again
Reach inside or reach the end"


Play Prechorus, but add an extra low Bb at the end (an extra beat is added the 2nd time)




Chorus 2 - Pick Chords and TP notes as 16ths, same lyrics

  Gb5                                F5               
|---------------------------------|-----------------------------------|
|---------------------------------|-----------------------------------|
|--15-----------------------------|--14-------------------------------|
|--15-----------------------------|--14-------------------------------|
|--13-----------------------------|--12-------------------------------|
|---------------------------------|-----------------------------------|
|
| Guitar 2
|--13TP---------------------------|--12TP-----------------------------|
|---------------------------------|-----------------------------------|
|---------------------------------|-----------------------------------|
|---------------------------------|-----------------------------------|
|---------------------------------|-----------------------------------|
|---------------------------------|-----------------------------------|


  Db5             Eb5               Bb5
|---------------------------------|---------------------------------|
|---------------------------------|---------------------------------|
|-10--------------12--------------|-7-------------------------------|
|-10--------------12--------------|-7-------------------------------|
|-8---------------10--------------|-5-------------------------------|
|---------------------------------|-0-------------------------------|
|
| Guitar 2
|---------------------------------|---------------------------------|
|-13-hold-------------------------|---------------------------------|
|---------------------------------|-14-hold-------------------------|
|---------------------------------|---------------------------------|
|---------------------------------|---------------------------------|
|---------------------------------|---------------------------------|


  Gb5                                F5               
|---------------------------------|-----------------------------------|
|---------------------------------|-----------------------------------|
|--15-----------------------------|--14-------------------------------|
|--15-----------------------------|--14-------------------------------|
|--13-----------------------------|--12-------------------------------|
|---------------------------------|-----------------------------------|
|
| Guitar 2
|--13TP--------------------13b15r-|--12TP-----------------------------|
|---------------------------------|-----------------------------------|
|---------------------------------|-----------------------------------|
|---------------------------------|-----------------------------------|
|---------------------------------|-----------------------------------|
|---------------------------------|-----------------------------------|


  Db5                               Eb5
|---------------------------------|---------------------------------|
|---------------------------------|---------------------------------|
|-10------------------------------|-12------------------------------|
|-10------------------------------|-12------------------------------|
|-8-------------------------------|-10------------------------------|
|---------------------------------|---------------------------------|
|
| Guitar 2
|---------------------------------|-10TP----------------------------|
|-13TP----------------------------|---------------------------------|
|---------------------------------|---------------------------------|
|---------------------------------|---------------------------------|
|---------------------------------|---------------------------------|
|---------------------------------|---------------------------------|




Solo
|-14-------14-14-15------17-------|-17----15b17r----------------|
|---------------------------------|---------------17-----17--17-|
|---------------------------------|------------------------17---|
|---------------------------------|-----------------------------|
|---------------------------------|-----------------------------|
|---------------------------------|-----------------------------|

|-----------8-----6----5----------|------------10--------------------------------|
|-18\---/6-----6-----6----6b7-6---|--------------13p10-----10-13-----------------|
|-------------------------7-----7-|-5-----------------12b14-----12b13r-10-12--10b|
|---------------------------------|---7-7-7---------------------------------12---|
|---------------------------------|-----8-5--------------------------------------|
|---------------------------------|----------------------------------------------|

|---------------------------------|----------------------------------|
|-----10--------------------------|--------------8-------------------|
|-----10-----------10-12----------|---------9--------9-9PH_b10r------|
|-12------10--10-12---------------|------10---10----------------10---|
|-----------12----------10----8---|-7b8r-----------------------------|
|---------------------------------|----------------------------------|

|--------------13--13-15b17r---13--13---|
|-----13--13/15--15--------------15-----|
|-9/10--10------------------------------|
|---------------------------------------|
|---------------------------------------|
|---------------------------------------|

|-------------------------------------------------------------------|-20~~~--
|-15-----15-----15-----15-----15h17p15--15h17-18--15h17p15--15------|--------
|---17-17--17-17--17-17--17-17--------17------------------17--17-15-|--------
|-------------------------------------------------------------------|--------
|-------------------------------------------------------------------|--------
|-------------------------------------------------------------------|--------




Solo Rhythm Part Chords - Listen to recording for strum rhythm
|-----------------------|---------------------------|------------------|
|-----------------------|---------------------------|------------------|
|-----------------------|---------------------------|------------------|
|-7---------------------|-3----------5--------------|-8----------------|
|-5---------------------|-3----------3--------------|-8----------------|
|-0---------------------|-3----------2--------------|-8----------------|

|-----------------------|----------------------|-----------------------|
|-----------------------|----------------------|-----------------------|
|-----------------------|----------------------|-----------------------|
|-7---------------------|-7--------------------|-3----------5----------|
|-5---------------------|-5--------------------|-3----------3----------|
|-0---------------------|-0--------------------|-3----------2----------|

|-----------------------|----------------------|
|-----------------------|----------------------|
|-----------------------|----------------------|
|-8---------------------|-10------------12\----|
|-8---------------------|-8-------------12\----|
|-8---------------------|-8-------------12\----|




Post-Solo Bridge - Odd rhythm, but treat it as 3 eighths then 5 eighths each bar

  1   &   2      &   3   &     4    &     1   &   2    &  3  &    4   &
|---------------------------------------|---------------------------------|
|---------------------------------------|---------------------------------|
|---------------------------------------|---------------------------------|
|------------12--------------10------8--|-----------4------------3-----1--|
|---------------------------------------|---------------------------------|
|-0-----10/12----0------12\10---10\8----|-0-----1/4----0-----4\3---3\1----| play 3x


ending
|---------------------------------------|---------------------------------|
|---------------------------------------|---------------------------------|
|---------------------------------------|---------------------------------|
|------------12--------------10------8--|-----------4------3------7-------|
|---------------------------------------|--------------333-3------7-------|
|-0-----10/12----0------12\10---10\8----|-0-----1/4----333-3------7-------|
                                                       PM*





Go through Chorus Again with strumming rhythms 3x, then end with this:

|---------------------------|-------------------------------|
|---------------------------|-------------------------------|
|-10------------------------|-8-8-8-8-8-8-8-8----8---8\-----|
|-10------------------------|-8-8-8-8-8-8-8-8----8---8\-----|
|-8-------------------------|-6-6-6-6-6-6-6-6----6---6\-----|
|---------------------------|-------------------------------|
|
| Guitar 2
|---------------------------|-------------------------------|
|-13TP----------------------|-11TP--------------------------|
|---------------------------|-------------------------------|
|---------------------------|-------------------------------|
|---------------------------|-------------------------------|
|---------------------------|-------------------------------|




Ending - Like Prechorus, just different drum beat

|---------------------------------|----------------------------------|
|---------------------------------|----------------------------------|
|---------5-----------------------|----------------------------------|
|---------------------------------|----------------------------------|
|-6-----3-------6-5-0-------6-5-0-|---------3-------3----------------|
|---0-0-----0-0-------0-0-0-------|-0-0-0-1---0-0-1---1-0---00000000-| play 3x
PM  * *     * *         * *           * *     * *           ********

|---------------------------------|------------------------------|
|---------------------------------|------------------------------|
|---------5-----------------------|------------------------------|
|---------------------------------|------------------------------|
|-6-----3-------6-5-0-------6-5-0-|---------3-------3------------|
|---0-0-----0-0-------0-0-0-------|-0-0-0-1---0-0-1---1-0--------|
PM  * *     * *         * *           * *     * *           



************************************
KEY
| /   slide up
| \   slide down
| h   hammer-on
| p   pull-off
| ~   vibrato
| PH  pinch harmonic
| x   Mute note
| b   Bend
| r   Bend release
| TP  tremolo picking - steady 16ths
| PM  palm mutes, with * indicating notes to mute

************************************************************************

            
            
Suggest correction
Creating personal tab
Creating personal tab
You can edit any tab online and save it as your Personal.

You can edit, replace or remove any tab part or add personal notes – all changes will be seen only by you.

Personal tabs can be accessed anytime from any device, even offline.
Learn more »
Give kudos to tab author, rate the tab!
1 2 3 4 5
comments
print report bad tab
guest
You may want to rate the tab now too:
select rating
Wanna post a correction for this tab? Suggest correction