Oops, an error
Loading. Please wait.

Unable To See tab

version 1
version 1

Whole song

Interactive

3,925 views 24 this week
2 commentsread comments
1 2 3 4 5
x 7
add to favorites
×
Save as Personal and add changes to this tab that will be seen only by you. Learn more ›
×
You can save this tab as Personal to edit and correct it or add notes. All changes will be seen only by you. Learn more »
launch autoscroll
font size
0
reset
how to read this tab
guitar tuner
edit
Autoscroll
slow
fast
+/-
esc
set tempo
stop
Nice little ballad from Tremonti's latest effort "Dust".
The rhythm might not be correct at all times, but it shouldn't be too hard to figure out.
There are some details here and there that I might add later on -
- the song is really melodic and there is lots of stuff going on.

[Intro]

(Clean /w a little reverb)

Let the notes ring out during the progression

D#|----------------------------|----------------------------|------------0-------------|
A#|--15----------15\14-12------|----------------------------|---------------10---------|
F#|--------11------------------|--14----------12h14-12------|------------------11/7----|
C#|--0--------0----------------|--------11------------------|--12----------------------|
G#|----------------------------|--0--------0----------------|------9-------------------|
C#|----------------------------|----------------------------|--9------9----------------|

D#|-----------5----------------|------------0----------|----|------------7-------------|
A#|--------------8-------------|---------------10------|----|---------------10---------|
F#|--8--------------7----------|------------------11~--|(11)|------------------9-------|
C#|-----7----------------------|--12-------------------|----|--10----------------------|
G#|----------------------------|------9----------------|----|------9-------------------|
C#|--5-----5-------------------|--9------9-------------|----|--7------7----------------|

D#|----------------------------|----------------------------|------------0-------------|
A#|--15----------15\14-12------|----------------------------|---------------10---------|
F#|--------11------------------|--14----------12h14-12------|------------------11/7----|
C#|--0--------0----------------|--------11------------------|--12----------------------|
G#|----------------------------|--0--------0----------------|------9-------------------|
C#|----------------------------|----------------------------|--9------9----------------|

D#|-----------5----------------|------------0----------|----|------------7-------------|
A#|--------------8-------------|---------------10------|----|---------------10---------|
F#|--8--------------7----------|------------------11~--|(11)|------------------9~------|
C#|-----7----------------------|--12-------------------|----|--10----------------------|
G#|----------------------------|------9----------------|----|------9-------------------|
C#|--5-----5-------------------|--9------9-------------|----|--7------7----------------|


[Verse 1]

(Clean)

D#|--2---------------------2----2--2-2--2--2-2-2-2------------------------------------------|
A#|--3--3-3--x--2--2-2--x--3----3--3-3--3--2-2-2-2----2--2-2-2-2---8----8--8-8--7--7-7-7-7--|
F#|--2--2-2--x--2--2-2--x--4----4--4-4--4--4-4-4-4----2--2-2-2-2---7----7--7-7--7--7-7-7-7--|
C#|--0--0-0--x--2--2-2--x--4----4--4-4--4--4-4-4-4----2--2-2-2-2---5----5--5-5--5--5-5-5-5--|
G#|--0--0-0--x--0--0-0--x--2----2--2-2--2--2-2-2-2----0--0-0-0-0---5----5--5-5--5--5-5-5-5--|
C#|--0--0-0--x----------x------------------------------------------5----5--5-5--5--5-5-5-5--|

D#|--2---------------------2----2--2-2--2--2-2-2-2------------------------------------------|
A#|--3--3-3--x--2--2-2--x--2----3--3-3--3--2-2-2-2----2--2-2-2-2---8----8--8-8--7--7-7-7-7--|
F#|--2--2-2--x--2--2-2--x--4----4--4-4--4--4-4-4-4----2--2-2-2-2---7----7--7-7--7--7-7-7-7--|
C#|--0--0-0--x--2--2-2--x--4----4--4-4--4--4-4-4-4----2--2-2-2-2---5----5--5-5--5--5-5-5-5--|
G#|--0--0-0--x--0--0-0--x--2----2--2-2--2--2-2-2-2----0--0-0-0-0---5----5--5-5--5--5-5-5-5--|
C#|--0--0-0--x----------x------------------------------------------5----5--5-5--5--5-5-5-5--|

D#|--2---------------------2----2--2-2--2--2-2-2-2------------------------------------------|
A#|--3--3-3--x--2--2-2--x--2----3--3-3--3--2-2-2-2----2--2-2-2-2---8----8--8-8--7--7-7-7-7--|
F#|--2--2-2--x--2--2-2--x--4----4--4-4--4--4-4-4-4----2--2-2-2-2---7----7--7-7--7--7-7-7-7--|
C#|--0--0-0--x--2--2-2--x--4----4--4-4--4--4-4-4-4----2--2-2-2-2---5----5--5-5--5--5-5-5-5--|
G#|--0--0-0--x--0--0-0--x--2----2--2-2--2--2-2-2-2----0--0-0-0-0---5----5--5-5--5--5-5-5-5--|
C#|--0--0-0--x----------x------------------------------------------5----5--5-5--5--5-5-5-5--|

D#|--2---------------------2----2--2-2--2--2-2-2-2------------------------------------------|
A#|--3--3-3--x--2--2-2--x--2----2--2-2--2--2-2-2-2----2--2-2-2-2---8----8--8-8--7--7-7-7-7--|
F#|--2--2-2--x--2--2-2--x--4----4--4-4--4--4-4-4-4----2--2-2-2-2---7----7--7-7--7--7-7-7-7--|
C#|--0--0-0--x--2--2-2--x--4----4--4-4--4--4-4-4-4----2--2-2-2-2---5----5--5-5--5--5-5-5-5--|
G#|--0--0-0--x--0--0-0--x--2----2--2-2--2--2-2-2-2----0--0-0-0-0---5----5--5-5--5--5-5-5-5--|
C#|--0--0-0--x----------x------------------------------------------5----5--5-5--5--5-5-5-5--|


[Pre-Chorus 1]

D#|--------3-3---3--3--3-3~----|
A#|--2~----3-3---3--3--3-3~----|
F#|--2~----0-0---0--0--0-0~----|
C#|--2~----0-0---0--0--0-0~----|
G#|--0~----x-x---x--x--x-x~----|
C#|--------3-3---3--3--3-3~----|


[Chorus 1]


D#|--2--------------------------------------------------|--2------------------------------------------------|
A#|--3--3-3-3-3-------------------------8---8--7-7-7----|--3--3-3-3-3-------------------------8---8--7-7-7--|
F#|--2--2-2-2-2--4--4-4-4-4-------------7---7--7-7-7----|--2--2-2-2-2--4--4-4-4-4-------------7---7--7-7-7--|
C#|--0--0-0-0-0--4--4-4-4-4--4--4--4-4--5---5--5-5-5----|--0--0-0-0-0--4--4-4-4-4--4--4--4-4--5---5--5-5-5--|
G#|--0--0-0-0-0--2--2-2-2-2--4--4--4-4--5---5--5-5-5----|--0--0-0-0-0--2--2-2-2-2--4--4--4-4--5---5--5-5-5--|
C#|--0--0-0-0-0--------------4--4--4-4--5---5--5-5-5----|--0--0-0-0-0--------------4--4--4-4--5---5--5-5-5--|

D#|--2--------------------------------------------------|--2------------------------------------------------|
A#|--3--3-3-3-3-------------------------8---8--7-7-7----|--3--3-3-3-3-------------------------8---8--7-7-7--|
F#|--2--2-2-2-2--4--4-4-4-4-------------7---7--7-7-7----|--2--2-2-2-2--4--4-4-4-4-------------7---7--7-7-7--|
C#|--0--0-0-0-0--4--4-4-4-4--4--4--4-4--5---5--5-5-5----|--0--0-0-0-0--4--4-4-4-4--4--4--4-4--5---5--5-5-5--|
G#|--0--0-0-0-0--2--2-2-2-2--4--4--4-4--5---5--5-5-5----|--0--0-0-0-0--2--2-2-2-2--4--4--4-4--5---5--5-5-5--|
C#|--0--0-0-0-0--------------4--4--4-4--5---5--5-5-5----|--0--0-0-0-0--------------4--4--4-4--5---5--5-5-5--|


[Verse 2]

(Distortion)

D#|--------------------------------------------------------------------------------------|
A#|-------2--------------------------------------------8--8--8-8-8-8--7-7-7-7------------|
F#|--7----2----4--4--4-4-4-4--4-4-4-4------------------7--7--7-7-7-7--7-7-7-7------------|
C#|--7----2----4--4--4-4-4-4--4-4-4-4---7--7-7-x-4-4-x-5--5--5-5-5-5--5-5-5-5------------|
G#|--5----0----2--2--2-2-2-2--2-2-2-2---7--7-7-x-4-4-x-5--5--5-5-5-5--5-5-5-5------------|
C#|-------------------------------------7--7-7-x-4-4-x-5--5--5-5-5-5--5-5-5-5------------|

D#|--------------------------------------------------------------------------------------|
A#|---------2-2-2----------------------------------------------8--8--8-8-8-8--7-7-7-7----|
F#|--7-7-7--2-2-2----4--4--4-4-4-4--4-4-4-4--------------------7--7--7-7-7-7--7-7-7-7----|
C#|--7-7-7--2-2-2----4--4--4-4-4-4--4-4-4-4-x-x-7--7-7-x-4-4-x-5--5--5-5-5-5--5-5-5-5----|
G#|--5-5-5--0-0-0----2--2--2-2-2-2--2-2-2-2-x-x-7--7-7-x-4-4-x-5--5--5-5-5-5--5-5-5-5----|
C#|-----------------------------------------x-x-7--7-7-x-4-4-x-5--5--5-5-5-5--5-5-5-5----|

D#|--------------------------------------------------------------------------------------|
A#|---------2-2-2----------------------------------------------8--8--8-8-8-8--7-7-7-7----|
F#|--7-7-7--2-2-2----4--4--4-4-4-4--4-4-4-4--------------------7--7--7-7-7-7--7-7-7-7----|
C#|--7-7-7--2-2-2----4--4--4-4-4-4--4-4-4-4-x-x-7--7-7-x-4-4-x-5--5--5-5-5-5--5-5-5-5----|
G#|--5-5-5--0-0-0----2--2--2-2-2-2--2-2-2-2-x-x-7--7-7-x-4-4-x-5--5--5-5-5-5--5-5-5-5----|
C#|-----------------------------------------x-x-7--7-7-x-4-4-x-5--5--5-5-5-5--5-5-5-5----|

D#|--------------------------------------------------------------------------------------|
A#|---------2-2-2------------------------------------------------------------------------|
F#|--7-7-7--2-2-2----4--4--4-4-4-4--4-4-4-4----------------------------------------------|
C#|--7-7-7--2-2-2----4--4--4-4-4-4--4-4-4-4-x-x-7----------------------------------------|
G#|--5-5-5--0-0-0----2--2--2-2-2-2--2-2-2-2-x-x-7--------------5-5-5-5-5-5-5-5-----------|
C#|-----------------------------------------x-x-7--------------5-5-5-5-5-5-5-5-----------|
PM                                                             * * * * * *


[Chorus 2]

D#|--2--------------------------------------------------|--2------------------------------------------------|
A#|--3--3-3-3-3-------------------------8---8--7-7-7----|--3--3-3-3-3-------------------------8---8--7-7-7--|
F#|--2--2-2-2-2--4--4-4-4-4-------------7---7--7-7-7----|--2--2-2-2-2--4--4-4-4-4-------------7---7--7-7-7--|
C#|--0--0-0-0-0--4--4-4-4-4--4--4--4-4--5---5--5-5-5----|--0--0-0-0-0--4--4-4-4-4--4--4--4-4--5---5--5-5-5--|
G#|--0--0-0-0-0--2--2-2-2-2--4--4--4-4--5---5--5-5-5----|--0--0-0-0-0--2--2-2-2-2--4--4--4-4--5---5--5-5-5--|
C#|--0--0-0-0-0--------------4--4--4-4--5---5--5-5-5----|--0--0-0-0-0--------------4--4--4-4--5---5--5-5-5--|

D#|--2--------------------------------------------------|--2------------------------------------------------|
A#|--3--3-3-3-3-------------------------8---8--7-7-7----|--3--3-3-3-3-------------------------8---8--7-7-7--|
F#|--2--2-2-2-2--4--4-4-4-4-------------7---7--7-7-7----|--2--2-2-2-2--4--4-4-4-4-------------7---7--7-7-7--|
C#|--0--0-0-0-0--4--4-4-4-4--4--4--4-4--5---5--5-5-5----|--0--0-0-0-0--4--4-4-4-4--4--4--4-4--5---5--5-5-5--|
G#|--0--0-0-0-0--2--2-2-2-2--4--4--4-4--5---5--5-5-5----|--0--0-0-0-0--2--2-2-2-2--4--4--4-4--5---5--5-5-5--|
C#|--0--0-0-0-0--------------4--4--4-4--5---5--5-5-5----|--0--0-0-0-0--------------4--4--4-4--5---5--5-5-5--|


[Bridge]

D#|-----------------------------------------------------------------------------------------------------|
A#|-----------------------------------------------------------------------------------------------------|
F#|---------------------------------------------------7--7--7-7-7-7--7-7-7-7--7--7--7-7-7-7--7-7-7-7----|
C#|---7--7--7-7-7-7--7-7-7-7--5--5--5-5-5-5--5-5-5-5--7--7--7-7-7-7--7-7-7-7--7--7--7-7-7-7--7-7-7-7----|
G#|---7--7--7-7-7-7--7-7-7-7--5--5--5-5-5-5--5-5-5-5--5--5--5-5-5-5--5-5-5-5--5--5--5-5-5-5--5-5-5-5----|
C#|---7--7--7-7-7-7--7-7-7-7--5--5--5-5-5-5--5-5-5-5----------------------------------------------------|

D#|-----------------------------------------------------------------------------------------------------|
A#|-----------------------------------------------------------------------------------------------------|
F#|---------------------------------------------------7--7--7-7-7-7--7-7-7-7--7--7--7-7-7-7--7-7-7-7----|
C#|---7--7--7-7-7-7--7-7-7-7--5--5--5-5-5-5--5-5-5-5--7--7--7-7-7-7--7-7-7-7--7--7--7-7-7-7--7-7-7-7----|
G#|---7--7--7-7-7-7--7-7-7-7--5--5--5-5-5-5--5-5-5-5--5--5--5-5-5-5--5-5-5-5--5--5--5-5-5-5--5-5-5-5----|
C#|---7--7--7-7-7-7--7-7-7-7--5--5--5-5-5-5--5-5-5-5----------------------------------------------------|

D#|-----------------------------------------------------------------------------------------------------|
A#|-----------------------------------------------------------------------------------------------------|
F#|---------------------------------------------------7~------------------------------------------------|
C#|---7--7--7-7-7-7--7-7-7-7--5--5--5-5-5-5--5-5-5-5--7~------------------------------------------------|
G#|---7--7--7-7-7-7--7-7-7-7--5--5--5-5-5-5--5-5-5-5--5~------------------------------------------------|
C#|---7--7--7-7-7-7--7-7-7-7--5--5--5-5-5-5--5-5-5-5----------------------------------------------------|


[Clean Pre-Chorus 2]

D#|--2--------------------------------------------------------|
A#|--3--3-3-3-3-------------------------8-8-8--8-7-7-7--------|
F#|--2--2-2-2-2--4--4-4-4-4-------------7-7-7--7-7-7-7--------|
C#|--0--0-0-0-0--4--4-4-4-4--4--4--4-4--5-5-5--5-5-5-5--------|
G#|--0--0-0-0-0--2--2-2-2-2--4--4--4-4--5-5-5--5-5-5-5--------|
C#|--0--0-0-0-0--------------4--4--4-4--5-5-5--5-5-5-5--------|

D#|--2--------------------------------------------------------|
A#|--3--3-3-3-3-----------------------------------------------|
F#|--2--2-2-2-2--4--4-4-4-4-----------------------------------|
C#|--0--0-0-0-0--4--4-4-4-4--4--4--4-4--5---------------------|
G#|--0--0-0-0-0--2--2-2-2-2--4--4--4-4--5--5-5-5-5-5-5-5-5----|
C#|--0--0-0-0-0--------------4--4--4-4--5--5-5-5-5-5-5-5-5----|
PM                                         * * * * *


[Chorus 3]

(Distortion)

D#|--2--------------------------------------------------|--2------------------------------------------------|
A#|--3--3-3-3-3-------------------------8---8--7-7-7----|--3--3-3-3-3-------------------------8---8--7-7-7--|
F#|--2--2-2-2-2--4--4-4-4-4-------------7---7--7-7-7----|--2--2-2-2-2--4--4-4-4-4-------------7---7--7-7-7--|
C#|--0--0-0-0-0--4--4-4-4-4--4--4--4-4--5---5--5-5-5----|--0--0-0-0-0--4--4-4-4-4--4--4--4-4--5---5--5-5-5--|
G#|--0--0-0-0-0--2--2-2-2-2--4--4--4-4--5---5--5-5-5----|--0--0-0-0-0--2--2-2-2-2--4--4--4-4--5---5--5-5-5--|
C#|--0--0-0-0-0--------------4--4--4-4--5---5--5-5-5----|--0--0-0-0-0--------------4--4--4-4--5---5--5-5-5--|

D#|--2--------------------------------------------------|--2------------------------------------------------|
A#|--3--3-3-3-3-------------------------8---8--7-7-7----|--3--3-3-3-3-------------------------8---8--7-7-7--|
F#|--2--2-2-2-2--4--4-4-4-4-------------7---7--7-7-7----|--2--2-2-2-2--4--4-4-4-4-------------7---7--7-7-7--|
C#|--0--0-0-0-0--4--4-4-4-4--4--4--4-4--5---5--5-5-5----|--0--0-0-0-0--4--4-4-4-4--4--4--4-4--5---5--5-5-5--|
G#|--0--0-0-0-0--2--2-2-2-2--4--4--4-4--5---5--5-5-5----|--0--0-0-0-0--2--2-2-2-2--4--4--4-4--5---5--5-5-5--|
C#|--0--0-0-0-0--------------4--4--4-4--5---5--5-5-5----|--0--0-0-0-0--------------4--4--4-4--5---5--5-5-5--|

[Chorus 4/Solo]

D#|--2--------------------------------------------------|--2------------------------------------------------|
A#|--3--3-3-3-3-------------------------8---8--7-7-7----|--3--3-3-3-3-------------------------8---8--7-7-7--|
F#|--2--2-2-2-2--4--4-4-4-4-------------7---7--7-7-7----|--2--2-2-2-2--4--4-4-4-4-------------7---7--7-7-7--|
C#|--0--0-0-0-0--4--4-4-4-4--4--4--4-4--5---5--5-5-5----|--0--0-0-0-0--4--4-4-4-4--4--4--4-4--5---5--5-5-5--|
G#|--0--0-0-0-0--2--2-2-2-2--4--4--4-4--5---5--5-5-5----|--0--0-0-0-0--2--2-2-2-2--4--4--4-4--5---5--5-5-5--|
C#|--0--0-0-0-0--------------4--4--4-4--5---5--5-5-5----|--0--0-0-0-0--------------4--4--4-4--5---5--5-5-5--|

D#|--2--------------------------------------------------|--2------------------------------------------------|
A#|--3--3-3-3-3-------------------------8---8--7-7-7----|--3--3-3-3-3-------------------------8---8--7-7-7--|
F#|--2--2-2-2-2--4--4-4-4-4-------------7---7--7-7-7----|--2--2-2-2-2--4--4-4-4-4-------------7---7--7-7-7--|
C#|--0--0-0-0-0--4--4-4-4-4--4--4--4-4--5---5--5-5-5----|--0--0-0-0-0--4--4-4-4-4--4--4--4-4--5---5--5-5-5--|
G#|--0--0-0-0-0--2--2-2-2-2--4--4--4-4--5---5--5-5-5----|--0--0-0-0-0--2--2-2-2-2--4--4--4-4--5---5--5-5-5--|
C#|--0--0-0-0-0--------------4--4--4-4--5---5--5-5-5----|--0--0-0-0-0--------------4--4--4-4--5---5--5-5-5--|

[Outro]

(Clean)

D#|----------------------------|----------------------------|------------0-------------|
A#|--15----------15\14-12------|----------------------------|---------------10---------|
F#|--------11------------------|--14----------12h14-12------|------------------11/7----|
C#|--0--------0----------------|--------11------------------|--12----------------------|
G#|----------------------------|--0--------0----------------|------9-------------------|
C#|----------------------------|----------------------------|--9------9----------------|

D#|-----------5----------------|------------0----------|----|------------7-------------|
A#|--------------8-------------|---------------10------|----|---------------10---------|
F#|--8--------------7----------|------------------11~--|(11)|------------------9-------|
C#|-----7----------------------|--12-------------------|----|--10----------------------|
G#|----------------------------|------9----------------|----|------9-------------------|
C#|--5-----5-------------------|--9------9-------------|----|--7------7----------------|

D#|----------------------------|----------------------------|------------0-------------|
A#|--15----------15\14-12------|----------------------------|---------------10---------|
F#|--------11------------------|--14----------12h14-12------|------------------11/7----|
C#|--0--------0----------------|--------11------------------|--12----------------------|
G#|----------------------------|--0--------0----------------|------9-------------------|
C#|----------------------------|----------------------------|--9------9----------------|

D#|-----------5----------------|------------0----------|----|------------7-------------|
A#|--------------8-------------|---------------10------|----|---------------10---------|
F#|--8--------------7----------|------------------11~--|(11)|------------------9~------|
C#|-----7----------------------|--12-------------------|----|--10----------------------|
G#|----------------------------|------9----------------|----|------9-------------------|
C#|--5-----5-------------------|--9------9-------------|----|--7------7----------------|


************************************

| x  Dead note
| h  Hammer-on
| \  Slide down
| ~  Vibrato
| L  Tied note

************************************

            
            
Suggest correction
Creating personal tab
Creating personal tab
You can edit any tab online and save it as your Personal.

You can edit, replace or remove any tab part or add personal notes – all changes will be seen only by you.

Personal tabs can be accessed anytime from any device, even offline.
Learn more »
comments
print report bad tab
2 comments total.
0 reply
matrap_23 81 Oct 16, 2016 08:01 PM

i believe the intro is missing a couple of parts.

0 reply
rocklee1431 91 Mar 31, 2017 05:46 PM

Seems like you accidentally put some notes on the wrong strings in the intro. Pretty good overall though

guest
You may want to rate the tab now too:
select rating
Wanna post a correction for this tab? Suggest correction