Oops, an error
Loading. Please wait.

Barrio Bajo Tab

version 1
version 1

Whole song

28 views 1 this week
no commentswrite comment
1 2 3 4 5
3 more votes to show rating
add to favorites
launch autoscroll
font size
0
reset
how to read this tab
guitar tuner
Autoscroll
slow
fast
+/-
esc
set tempo
stop
Help us to improve Ultimate-Guitar.com Take our survey!
×
Mi barrio era así
Así...
Ma´que se yo si era así!
Yo me lo acuerdo así!

Intro:
e|---------------------------------------------------------------------------------------|
B|---------------------------------------------------------------------------------------|
G|--9------------------------------------------------------------------------------------|
D|--9---9---9------7-7-7----------------------7-7-7--6-6-6--6-6-6--6-6-6-----------------|
A|--7---7---7------5-5-5-8-8-8--8-8-8--8-8-8--5-5-5--4-4-4--4-4-4--4-4-4--/8-----7-------|
E|--0-0---0---0----------6-6-6--6-6-6--6-6-6---------------------------------6~----5-3*--|
3*: Armónico con pua

e|-----------------------------------------------------------------------------------------|
B|-----------------------------------------------------------------------------------------|
G|-----------------------------------------------------------------------------------------|
D|------9----9----9--7-7-7----------------------7-7-7--6-6-6--6-6-6--6-6-6-----------------|
A|------7----7----7--5-5-5-8-8-8--8-8-8--8-8-8--5-5-5--4-4-4--4-4-4--4-4-4--/8-----7-------|
E|--0-0--0-0---0-0---------6-6-6--6-6-6--6-6-6---------------------------------6~----5-3*--|

Solo teclados
Solo guitarra:
e|-------------------------------------|
B|-----------15~-----------------------|
G|--/15/(16)---------12--------12------|
D|---------------/14----14-12-----14~--|
A|-------------------------------------|
E|-------------------------------------|

1er. parte cantada con Bajo y batería

MENU DE BIRRAS EN EL BARRIO BAJO
PISANDO CHARCOS Y LOS VIDRIOS ROTOS
LA TROCHA ANGOSTA DE UN TREN QUE NO VIENE
LA ESQUIZOFRENIA DE LOS PERROS SUELTOS
LOS TECHOS BAJOS Y EL TREN, EL BARRO SECO Y GARDEL
LOS VES A EVITA Y PERON LLORANDO CONTRA UN PORTON

e|-------------------------------------|
B|-------------------------------------|
G|------10~------10-------10-------10--|
D|------10~------10-------10-------10--|
A|------8~-------8--------8--------8---|
E|--0-0------0-0------0-0------0-0-----|

Al mismo tiempo se escucha esto:
e|----------------------------------------------|
B|------10/(12)~--10/(12)~--10/(12)~--10/(12)~--|
G|----------------------------------------------|
D|----------------------------------------------|
A|----------------------------------------------|
E|----------------------------------------------|

Em / F5# / G5 /A5 / G5 / A5
SOBRE LA RUTA LAS PUTAS DEL BAMBI;
Em / F5# / G5 /A5 / G5 / A5
UN PASACALLES CON FLECOS VIOLENTOS
Em / F5# / G5 /A5 / G5 / A5
EL ROCK AND ROLL SE RESPIRA EN LOS BACHES
Em / F5# / G5 /A5 / G5 / A5
ALGUN ASADO, UN GRITO SEDIENTO
Em / A5# / G5 / D5 / C5#
UN PASTOR IMPOSTOR QUE ACOPLA EN LA ESTACION
Em / A5# / G5 / D5 / C5#
ENSAYO DURO EN GRAND BOURG, JOSE C. PAZ Y NOGUES

B5 / C5 / D5 
B5 / C5 / D5 
B5 / C5 / D5 
Solo de bajo
D5 / C5

Em / F5# 
Bario bajo!
G5 / A5 / G5 / A5
Bario bajo!
Em / F5#
Bario bajo!
G5 / A5 / G5 / A5
Bario bajo!

e|-------------------------------------|
B|-------------------------------------|
G|------10~------10-------10-------10--|
D|------10~------10-------10-------10--|
A|------8~-------8--------8--------8---|
E|--0-0------0-0------0-0------0-0-----|

e|----------------------------------------------|
B|------10/(12)~--10/(12)~--10/(12)~--10/(12)~--|
G|----------------------------------------------|
D|----------------------------------------------|
A|----------------------------------------------|
E|----------------------------------------------|

Uohhh!!!

e|----------------------------------------------|
B|----------------------------------------------|
G|----------------------------------------------|
D|--2~------------------------------------------|
A|--2~------------------------------------------|
E|--0~-0-0-0--0-0--/6-5^0---0-0-0--0-0--/6-5^0--|

MENU DE BIRRAS EN EL BARRIO BAJO 
PISANDO CHARCOS Y LOS VIDRIOS ROTOS

BARRIO BAJO!
BARRIO BAJO!


Como intro, pero cambiando un poco el ritmo. X2
Ohhhh! Ohhhh!
Ohhhh! Ohhhh!

Algo más o menos así:
e|----------------------------------|
B|----------------------------------|
G|----------------------------------|
D|--------7-------9^7-------7-------|
A|--7^8^9---9^8^7-----7^8^9---9^8^7-|
E|----------------------------------|
(La última vez termina en Em)

B5 / C5 / D5
BARRIO BAJO!
B5 / C5 / D5
BARRIO BAJO!
B5 / C5 / D5
BARRIO BAJO!

Solo Bajo
D5 / C5

BARRIO BAJO!
BARRIO BAJO!
BARRIO BAJO!

Fin:
e|------------------------------------------------|
B|------------------------------------------------|
G|------------------------------------------------|
D|--/9-8-7-------------------------------------2--|
A|---------9-8-7--/7-6-5-----------------------2--|
E|-----------------------7-6-5--/5-4-3--2-3-5--0--|
Suggest correction
Give kudos to tab author, rate the tab!
1 2 3 4 5
comments
print report bad tab
guest
You may want to rate the tab now too:
select rating
Wanna post a correction for this tab? Suggest correction