Oops, an error
Loading. Please wait.

Barrio Bajo Tab

version 2
version 2

Whole song

19 views 1 this week
no commentswrite comment
1 2 3 4 5
3 more votes to show rating
add to favorites
launch autoscroll
font size
0
reset
how to read this tab
guitar tuner
Autoscroll
slow
fast
+/-
esc
set tempo
stop
Help us to improve Ultimate-Guitar.com Take our survey!
×
Ésta está mas completa que la anterior versión. Casi todo el tema en 5tas.

Mi barrio era así... así...
Mah que se yo si era así!
Yo me lo acuerdo así!

   MI          RE   LA#            RE   DO#                LA#   LA SOL
|-----------------------------------------------------------------------
|-----------------------------------------------------------------------
|--999-999-999----7-------------------7----6----6----6------------------
|--999-999-999----7----8----8----8----7----6----6----6------------------
|--777-777-777-55-5----8----8----8-55-5-44-4-44-4-44-4-/8------7--------
|--000-000-000------66-6-66-6-66-6-------------------------6~----5---
PM             ..   ..   ..   ..   ..   ..   ..   ..

  MI   FA MI     RE   LA#            RE   DO#                LA#   LA SOL
--------------------------------------------------------------------------|
--------------------------------------------------------------------------|
--------------------7-------------------7----6----6----6------------------|
-----2----2----2----7----8----8----8----7----6----6----6------------------|
-----2----2----2-55-5----8----8----8-55-5-44-4-44-4-44-4-/8------7--------|
--00-0-11-0-00 0------66-6-66-6-66-6-------------------------6~----5---|
PM..   ..   ..   ..   ..   ..   ..   ..   ..   ..   ..

   ______Bandoneón_______
   MIm          FA#m      SOL      LAm      SOL      FA#m
|-------------------------------------------------------------|
|------------------------------15-----------------------------|
|-------------------------15^16----------12--------12---------|
|-----2h4h5-4p2---2h4h5-4------------/14----14-12-----14-14~--|
|--3------------3---------------------------------------------|
|-------------------------------------------------------------|

MIm                  FA#m
   Menú de birras en el barrio bajo,
SOL                  LAm    SOL    FA#
   pisando charcos y los vidrios rotos
MIm                        FA#m
   La trocha angosta de un tren que no viene,
SOL                    LAm    SOL    FA#
   la esquizofrenia de los perros sueltos

MIm                      LA#
   Los techos bajos y el tren,
SOL                   DO#m
   el barro seco y Gardel
MIm                    LA#
   Los ves a Evita y Perón
SOL                      DO#m
   Llorando contra un portón


   MI FA    MI FA    MI FA    MI FA
|----------------------------------------|
|----------------------------------------|
|----------------------------------------|
|-----3--------3--------3--------3-------|
|-----3--------3--------3--------3-------|
|--00-1-----00-1-----00-1-----00-1-------|
|PM..       ..       ..       ..         |
|----------------------------------------|
|-----10^12----10^12----10^12----10^12---|
|----------------------------------------|
|----------------------------------------|
|----------------------------------------|
|----------------------------------------|


Sobre la ruta las putas del Bambi,
un pasacalles con flecos violentos
El rock'n roll se respira en los baches,
algún asado con grito sediento

Un pastor impostor
que acopla en la estación
Ensayo duro en Grand Bourg,
José C. Paz y Nogues

Sobre la ruta las putas del Bambi,
un pasacalles con flecos violentos
El rock'n roll se respira en los baches,
algún asado con grito sediento

Un pastor impostor
que acopla en la estación
Ensayo duro en Grand Bourg,
José C. Paz y Nogues

   SI              DO      RE       SI              DO      RE
|--------------------------------------------------------------------
|--------------------------------------------------------------------
|--4-4-4-4-4-4-4-4-5-5-5-5-7-7-7-7--4-4-4-4-4-4-4-4-5-5-5-5-7-7-7-7--
|--4-4-4-4-4-4-4-4-5-5-5-5-7-7-7-7--4-4-4-4-4-4-4-4-5-5-5-5-7-7-7-7--
|--2-2-2-2-2-2-2-2-3-3-3-3-5-5-5-5--2-2-2-2-2-2-2-2-3-3-3-3-5-5-5-5--
|--------------------------------------------------------------------

  SI              DO      RE       RE                      DO
-----------------------------------                                                 |
-----------------------------------                                                 |
--4-4-4-4-4-4-4-4-5-5-5-5-7-7-7-7---------------------------------------------------|
--4-4-4-4-4-4-4-4-5-5-5-5-7-7-7-7---------------------------------------------------|
--2-2-2-2-2-2-2-2-3-3-3-3-5-5-5-5--5h8-8-5h8-8-5h8-8-5h8-8-5h8-8-5h8-8-5h8-8-5h8-8--|
------------------------------------------------------------------------------------|

MIm   FA#m     SOL      LAm SOL FA#m
Barrio    bajo,   barrio   bajo
MIm   FA#m     SOL      LAm SOL FA#m
Barrio    bajo,   barrio   bajo


   MI FA    MI FA    MI FA    MI FA
|----------------------------------------|
|----------------------------------------|
|----------------------------------------|
|-----3--------3--------3--------3-------|
|-----3--------3--------3--------3-------|
|--00-1-----00-1-----00-1-----00-1-------|
|PM..       ..       ..       ..         |
|----------------------------------------|
|-----10^12----10^12----10^12----10^12---|
|----------------------------------------|
|----------------------------------------|
|----------------------------------------|
|----------------------------------------|

Ouuuh
   MI
|---------------------|
|---------------------|
|---------------------|
|--2------------------|
|--2-------------1p0--|
|--0-0-0-0-0-0-0------|
PM  ............


Menú de birras en el barrio bajo,
pisando charcos y los vidrios rotos

Barrio bajo, barrio bajo
Barrio bajo, barrio bajo
Barrio bajo, barrio bajo
Barrio bajo, barrio bajo


Parecido a la intro
Uoooooouoohh

No está del todo bien esta parte
|----------------------------------|
|----------------------------------|
|----------------------------------|
|--------7-------9p7-------7-------|
|--7h8h9---9p8p7-----7h8h9---9p8p7-|
|----------------------------------|
(La última vez termina en Mim)


   SI              DO      RE       SI              DO      RE
|--------------------------------------------------------------------
|--------------------------------------------------------------------
|--4-4-4-4-4-4-4-4-5-5-5-5-7-7-7-7--4-4-4-4-4-4-4-4-5-5-5-5-7-7-7-7--
|--4-4-4-4-4-4-4-4-5-5-5-5-7-7-7-7--4-4-4-4-4-4-4-4-5-5-5-5-7-7-7-7--
|--2-2-2-2-2-2-2-2-3-3-3-3-5-5-5-5--2-2-2-2-2-2-2-2-3-3-3-3-5-5-5-5--
|--------------------------------------------------------------------
   Barrio              bajo,        barrio              bajo

  SI              DO      RE       RE                      DO
-----------------------------------
-----------------------------------
--4-4-4-4-4-4-4-4-5-5-5-5-7-7-7-7---------------------------------------------------
--4-4-4-4-4-4-4-4-5-5-5-5-7-7-7-7---------------------------------------------------
--2-2-2-2-2-2-2-2-3-3-3-3-5-5-5-5--5h8-8-5h8-8-5h8-8-5h8-8-5h8-8-5h8-8-5h8-8-5h8-8--
------------------------------------------------------------------------------------
  barrio              bajo

   SI              DO      RE       SI              DO      RE
|--------------------------------------------------------------------
|--------------------------------------------------------------------
|--4-4-4-4-4-4-4-4-5-5-5-5-7-7-7-7--4-4-4-4-4-4-4-4-5-5-5-5-7-7-7-7--
|--4-4-4-4-4-4-4-4-5-5-5-5-7-7-7-7--4-4-4-4-4-4-4-4-5-5-5-5-7-7-7-7--
|--2-2-2-2-2-2-2-2-3-3-3-3-5-5-5-5--2-2-2-2-2-2-2-2-3-3-3-3-5-5-5-5--
|--------------------------------------------------------------------
   Barrio              bajo,        barrio              bajo

  SI              DO      RE                                                MIm
-------------------------------------------------------------------------------|
-------------------------------------------------------------------------------|
--4-4-4-4-4-4-4-4-5-5-5-5-7-7-7-7----------------------------------------------|
--4-4-4-4-4-4-4-4-5-5-5-5-7-7-7-7--/9-8-7-----------------------------------2--|
--2-2-2-2-2-2-2-2-3-3-3-3-5-5-5-5---------9-8-7-/7-6-5----------------------2--|
-------------------------------------------------------7-6-5-/5-4--2-3-5-0--|
  barrio              bajo


                 V8
Hermética  Horcas  Logos  Rata Blanca

Freyre, Cba.
Suggest correction
Give kudos to tab author, rate the tab!
1 2 3 4 5
comments
print report bad tab
guest
You may want to rate the tab now too:
select rating
Wanna post a correction for this tab? Suggest correction