Oops, an error
Loading. Please wait.

Ella Se Mueve En Silencio Tab

version 2
version 2

Whole song

106 views 3 this week
no commentswrite comment
1 2 3 4 5
3 more votes to show rating
add to favorites
launch autoscroll
font size
0
reset
how to read this tab
guitar tuner
Autoscroll
slow
fast
+/-
esc
set tempo
stop
Help us to improve Ultimate-Guitar.com Take our survey!
×
Aquí estoy de nuevo con la transcripción de uno de los mejores temas de Tren Loco que por cierto lo
interpretaron las dos veces que estuvieron por el Ecuador.
Este tema se lo quiero dedicar a la mujer más bella del mundo, Alejandra Llerena en quien e descubierto el
verdadero amor y a quien dedico todo lo que hago en mi vida, te amo preciosa.
Espero que les guste. Alguna recomendación o peticiones escribir a edisonqc@

Intro


Piano transcrito a guitarra

 REm                 DO                 LA#     LA      REm
E-1---1---1---1-3-5--0---0---0---0-1-3--1---1---0---0---1---1------------
B-3-3-3-3-3-3--------1-1-1-1-1-1--------3---3---2---2---3-3-3-3----------
G-2---2---2----------0---0---0----------3-3-3-3-2-2-2-2-2---2------------
D------------------------------------------------------------------------
A----------------------------------------------------------------0-0-3-0-
E------------------------------------------------------------------------

Verso igual que el intro


REm      DO
Ella es, noche azul
LA#       LA      REm
Siento el fuego de su piel
REm         DO
Viene a mí, otra vez
LA#       LA     REm
A embriagarme de placer


Coro

DO             SOL
Hoy, ya no me queda tiempo               Do  bajo en la segunda cuerda
LAm           FA        SOL              SOL bajo en LA segunda cuerda
Sé que ella está en silencio             Lam bajo en al tercera cuerda
DO           SOL                         FA  Bajo en al tercera cuerda
No! Quiero dejar su juego
LAm            FA     SOL
Sé que ella me lleva lejos


Verso 2 igual que el intro

REm         DO
¿Dónde está el lugar
LA#     LA      REm
que no puedo alcanzar?
REm           DO
Quiero entrar otra vez
LA#    LA     REm
En su carcel de placer


Coro (las mismas notas pero en 5tas)

DO             SOL
Hoy, ya no me queda tiempo
LAm           FA        SOL
Sé que ella está en silencio
DO           SOL
No! Quiero dejar su juego
LAm            FA     SOL      FA   SOL MI FA FA SOL LA
Sé que ella me lleva lejos     ooooooooh


Solo
E--------------------------------------------------8/10-8-------10/12-12-13--12-13-12-10--
B-------------------------8-10-10-8--------------8--------11-10---------------------------
G---------7/9-7----7-9/10-----------10-9--7-9-10------------------------------------------
D---------------10------------------------------------------------------------------------
A-----------------------------------------------------------------------------------------
E--5/15/5---------------------------------------------------------------------------------
          RE5      SOL5      LA#5     LA5   LA#5   SOL5          LA5                   RE5


E---------------------------------------------------------------------------
B-------------------------8---------8/10-8----8-10-13-15-15b17-15-----------
G--------7/10-9-7-9--9/10---10-9-10--------10-------------------------------
D---------------------------------------------------------------------------
A---------------------------------------------------------------------------
E-5/15/5--------------------------------------------------------------------
         FA5    SOL5     LA#5    LA5   LA#5   SOL5        LA5


No oh, no oh, no ooooohh

RE5 LA#5 DO5 LA5 LA#5 SOL5 LA5    dos veces


Coro

Coro un tono más alto o sea dos trastes más arriba


No oh, no oh ????????????????  dos veces


Solo 2

RE5 LA#5 DO5 LA5 LA#5 SOL5 LA5   cuatro veces


Acaba en Re5


El último solo ya lo publicare por que solo llevo la mitad y espero sacarlo en estos días.
Por último un saludo a los metaleros del Ecuador y a los miembros de Satrias ( mi banda ).
Suggest correction
Give kudos to tab author, rate the tab!
1 2 3 4 5
comments
print report bad tab
guest
You may want to rate the tab now too:
select rating
Wanna post a correction for this tab? Suggest correction