Oops, an error
Loading. Please wait.

Endemoniado Tab

253 views 3 this week
no commentswrite comment
1 2 3 4 5
3 more votes to show rating
add to favorites
launch autoscroll
font size
0
reset
how to read this tab
guitar tuner
Autoscroll
slow
fast
+/-
esc
set tempo
stop
Help us to improve Ultimate-Guitar.com Take our survey!
×
Esta transcripcion esta completa, espero que les sirva. Es la primera que hago asi
que cualquier cosa consultenme. Suena bien pero hay que encontrarle la vuelta, tiene
mucho movimiento con mano derecha. Suerte!

INTRO: c/dist

  SAQUENME DE AQUI!  oh! oh! ohohoh! ohoh! oh!  oh! oh! oh!
1|----------------------------------------------------------------
2|----------------------------------------------------------------
3|-------------------12--11--5--------------7----12--11--9--------
4|-------------------12--11--5--------------7----12--11--9--------
5|-------------------10---9--3--------------5----10---9--7--------
6|----------------------------------------------------------------

  ---------------------------------------------------------------*-------------|
  ---------------------------------------------------------------*-------------|
  -----------12--11--------5---5---------5---5----7----12--11--9-*---9-12-11-9-|
  ------2----12--11--5-5-5-5-5-5-5-5-5-5-5-5-5-5--7----12--11--9-*-9---12-11-9-|
  ------2----10---9--3-3-3-3-3-3-3-3-3-3-3-3-3-3--5----10---9--7-*-----10--9-7-|
  -15/--0--------------------------------------------------------*-------------|
              PALM MUTE  -   -   -     -   -   -

* comienza sin distorcion


RIFF1: s/dist

1|-----------------------------------------------------------------------------------
2|-----------------------------------------------------------------------------------
3|-------9---------9---------5---------5---------7---------7---------9-------12-11-9-
4|-----9---9-----9---9-----5---5-----5---5-----7---7-----7---7-----9---9-----12-11-9-
5|---7---------7---------3---------3---------5---------5---------7--------7--10--9-7-
6|-----------------------------------------------------------------------------------

  -----------------------------------------------------------------------------------|
  -----------------------------------------------------------------------------------|
  -------9---------9---------5---------5---------7---------7---------9---------9-----|
  -----9---9-----9---9-----5---5-----5---5-----7---7-----7---7-----9---9-----9---9---|
  ---7---------7---------3---------3---------5---------5---------7---------7---------|
  -----------------------------------------------------------------------------------|

ESTRIBILLO: c/dist

  Saquenme de aqui! oh! oh! saquenme de aqui!            antes...
1|----------------------------------------------------------------------------
2|----------------------------------------------------------------------------
3|---9--------------12--11---------5---5---------5---5----7-----12--11--9-----
4|---9--------------12--11---5-5-5-5-5-5-5-5-5-5-5-5-5-5--7-----12--11--9-----
5|---7--------------10---9---3-3-3-3-3-3-3-3-3-3-3-3-3-3--5-----10---9--7-----
6|----------------------------------------------------------------------------
                      PALM MUTE  -   -   -     -   -   -

      Saquenme de aqui! oh! oh! saquenme de aqui!            antes...
  --------------------------------------------------------------------------------|
  --------------------------------------------------------------------------------|
  ----------------------12--11---------5---5---------5---5----7-----12--11--9-----|
  ------2---------------12--11---5-5-5-5-5-5-5-5-5-5-5-5-5-5--7-----12--11--9-----|
  ------2---------------10---9---3-3-3-3-3-3-3-3-3-3-3-3-3-3--5-----10---9--7-----|
  -15/--0-------------------------------------------------------------------------|
                          PALM MUTE  -   -   -     -   -   -


                         |-------------RIFF1 ---------------|
                         |-----------ESTRIBILLO-------------|

RIFF2: s/dist

1|----------------------------------------------------------------------------------11-|
2|----------------------------------------------------------------------------------11-|
3|-------5----------7----------9-------12-11-9-------5----------7----------9--------11-|
4|-----5---5------7---7------9---9-----12-11-9-----5---5------7---7------9---9---------|
5|---3-------3--5-------5--7-------7---10--9-7---3-------3--5-------5--7-------7-------|
6|-------------------------------------------------------------------------------------|

SOLO: c/dist

1|-----------------------------------------------------------------------------------
2|-----------------------------------------------------------------------------------
3|-----------------------------------------------------------------------------------
4|------2---14-12-10-9--7-9-10-9---14-16-17-10--12-10-9-10---9--7--9-7--5--5---------
5|------2----------------------------------------------------------------------------
6|-15/--0----------------------------------------------------------------------------

  -----------------------------------------------------------------------------------
  ---------------------------------------------------------------------------15br----
  ------------------------------12-11b-12-9--9-11-12--9-11-12--13-15b--13h12-----12--
  -16-14-12-11--9-11-9--2-4-5--------------------------------------------------------
  -----------------------------------------------------------------------------------
  -----------------------------------------------------------------------------------

  ----------------------------------------------------14-11----14h11-14-11----11-----
  -------------------------------------------------11-------11-------------11----11--
  -12-11b-12-9--9-11-12-11-9-7-5-4--4-5-7--------------------------------------------
  ----------------------------------------7------------------------------------------
  -----------------------------------------------------------------------------------
  -----------------------------------------------------------------------------------

  -14-11----14h11-14-11----11-----14-11----14h11-14-11----11-------------------------
  -------11-------------11----11--------11-------------11----9-9b/8h7-8-7h8h9b/8h7-8-
  -----------------------------------------------------------------------------------
  -----------------------------------------------------------------------------------
  -----------------------------------------------------------------------------------
  -----------------------------------------------------------------------------------

  ---------------------------------------------------------------------------------------|
  ---------------------------------------------------------------------------------------|
  -----------------------------------11-12h13-15-13--9-11-12-14-12-11-9-11-12-11-9-7-----|
  ----------10-14----------10-12h14------------------------------------------------------|
  -10-12-14-------10-12-14---------------------------------------------------------------|
  -----------------------------------------------------------------------------------23/-|

RIFF 3: c/dist

1|-------------------------------|
2|-------------------------------|
3|------9--9-9--------9---9---9--|
4|--9-9-9--9-9--9-9-9-9-9-9-9-9--| x8
5|--7-7-7--7-7--7-7-7-7-7-7-7-7--|
6|-------------------------------|
P.M   -           - -   -   -

RIFF 4: c/dist

   SAQUENME DE AQUI   SAAAAAAQUENME
1|---------------------------------+-----------------------|
2|---------------------------------+-las-2-primeras-veces--|
3|--9----12--11--5----7--12--11--9-+-----------------------|
4|--9----12--11--5----5--12--11--9-+-999-999-999-999-999---| x4
5|--7----10---9--3----5--10---9--7-+-777-777-777-777-777---|
6|---------------------------------+-----------------------|
                                P.M  --- --- --- --- ---

           |--------------RIFF 2 ----------------|

RIFF 1.2: s/dist

1|------------------------------------------------------------------------
2|------------------------------------------------------------------------
3|-------9---------9---------5---------5---------7---------7---------9----
4|-----9---9-----9---9-----5---5-----5---5-----7---7-----7---7-----9---9--
5|---7---------7---------3---------3---------5---------5---------7--------
6|------------------------------------------------------------------------

comienza c/dist
  ----------------------------------------------------------|
  ----------------------------------------------------------|
  ---9/--------------------------555-555---555-555---7---9--|
  ---7/------222-222---222-222---555-555---555-555---7---9--|
  ---7/------222-222---222-222---333-333---333-333---5---7--|
  -----------000-000---000-000------------------------------|

RIFF 5: c/dist

1|------------------------+----+-----------------------------------|
2|------------------------+----+-----------------------------------|
3|------------------------+----+---------------------------9----9--|
4|-9--12-11--14-12--16-14-+-x2-+---------------------------9----9--| FIN
5|-7--10--9--12-10--14-12-+----+--15-14--17-15--19-17--21--7----7--|
6|------------------------+----+-----------------------------------|

 AGUANTE EL METAL NACIONAL!
 CIVILE NO MURIO CARAJO!
Suggest correction
Give kudos to tab author, rate the tab!
1 2 3 4 5
comments
print report bad tab
guest
You may want to rate the tab now too:
select rating
Wanna post a correction for this tab? Suggest correction