Oops, an error
Loading. Please wait.

Fuera De La Ley Tab

121 views 1 this week
no commentswrite comment
1 2 3 4 5
3 more votes to show rating
add to favorites
launch autoscroll
font size
0
reset
how to read this tab
guitar tuner
×
Best way to learn
"Fuera De La Ley"
Autoscroll
slow
fast
+/-
esc
set tempo
stop
Vngaa este tema del tren... hace añares lo tenía guardado y no lo subía..
Hasta q cayo Fernando Temechuk un día a mi chosa y me dijo
para darle manija nomas con el tema en 
y bue.... aca está... para todos los pibes....
con colaboracion temechaka, terminamos el solo
q andaba incompleto en aquellos tiempos

a las cachetadas nomas pero bue....

 (Leo)
   [Fer]

y aca queda el tema.... espero q les sirva...
No es tan jodido el tema, con un toque de practica va como trompada....

mandále nomas....


Intro.

e|---------------------------------------|
B|---------------------------------------|
G|---------------------------------------|
D|------------------------------------5--|
A|------------------------------------3--|
E|---0-0-0-3-0-2-0-3-0-5-0-3-0-2-0-0-----|
P.M   ...............................

e|-------------------------------------|
B|-------------------------------------|
G|-------------------------------------|
D|----------------------------------4--|
A|----------------------------------2--|
E|-0-0-0-3-0-2-0-3-0-5-0-3-0-2-0-0-----|
   ...............................
e|-------------------------------------|
B|-------------------------------------|
G|-------------------------------------|
D|----------------------------------5--|
A|----------------------------------3--|
E|-0-0-0-3-0-2-0-3-0-5-0-3-0-2-0-0-----|
   ...............................

e|-------------------------------------|
B|-------------------------------------|
G|-------------------------------------|
D|----------------------------------4--|
A|----------------------------------2--|
E|-0-0-0-3-0-2-0-3-0-5-0-3-0-2-0-0-----|
   ...............................

Riff1.
    Yo naci en un suelo inmenso.....
e|----------------------------------|
B|----------------------------------|
G|----------------------------------|x4
D|-9-------99-------99-------9-7-5--|
A|-7-77777-77-77777-77-77777-7-5-3--|
E|----------------------------------|
Riff2.
   Para nosotros nos han hecho!.......
e|--------------------------|
B|--------------------------|
G|--------------------------|x2
D|-5--7------10----9----10--|
A|-3--5--7777--7777-7777----|
E|--------------------------|
         .................
Riff3.
   Nosotros hemos estado postergados siempre fuera de la ley!
e|---------------------------------------|
B|---------------------------------------|
G|---------------------------------------|
D|--5--7---------------------------------|
A|--3--5--5-7-5-4-9-10-9-----------------|
E|--------3-5-3-2-7-8--7--12-|
                          ..............
Riff5.
  Perseguido por un vuelto huye el padre, el laburante..........

   E                C                D                B         D C B A
e|----------------------------------------------------------------------|
B|----------------------------------------------------------------------|
G|----------------------0-----0----------0-----0------------------------|x2
D|-----2-----2--------2---2-----2------4---4-----4--------4----7-5-4p2--|
A|---2---2-----2----3-------3-----3--5-------5-----5----5---5--5-3-2p0--|
E|-0-------0-----0------------------------------------7-----------------|

Estribillo
   Fuera!           Fuera!           Fuera  de  la  ley!
e|----------------------------------------------------------------------|
B|----------------------------------------------------------------------|
G|----------------------------------------------------------------------|
D|----------------------------------------------------------------------|x2
A|----------------------------------------------------------------------|
E|-3-0-3-0-3-0-3-0--2-0-2-0-2-0-2-0--1-0-1-0-1-0-1-0--0-0-0-0-0-0-0-0---|
   ...................................................................

Intermedio
e|------------------------------|
B|------------------------------|
G|------------------------------|
D|------------------------------| una pequeña pausa
A|------------------------------|
E|-0-0-0-3-0-2-0-3-0-5-0-3-0-2--|
   ...........................

Riff1
Riff2
Riff3
Riff4
Riff5
Estribillo x4

Solo de guitarra

e|----------------------------
B|----------------------------
G|------------8-7-5----5-7--7-
D|--2-2----2--8-7-5-7--5-7----
A|--2-2-22-2--------7---------
E|--0-0-00-0------------------
        ..
--------------------------------------------------------|
--------------------------------------------------------|
--7-12t7p5h7-12t7p5h7-12t7p5h7-12t7p5h7-12t7t5h7--12^^^-|
--7-----------------------------------------------------|
--------------------------------------------------------|
--------------------------------------------------------|

e|-----------------------------------------------------------------|
B|-----------------------------------------------------------------|
G|-------------8-7-5----5-7------7b9b7----5------------------------|
D|--2-2----2---8-7-5-7--5-7----7--------7---7b9--5---5p7h5---------|
A|--2-2-22-2---------7----------------------------7-------7h5--/5--|
E|--0-0-00-0-------------------------------------------------------|
        ..

e|-----------------------------------------------------------------|
B|-----------------------------------------------------------------|
G|-------------8-7-5----5--------7^-7^--7h5---5^-------------------|
D|--2-2----2---8-7-5-7--5------7------------7----------------------|
A|--2-2-22-2---------7---------------------------------------------|
E|--0-0-00-0-------------------------------------------------------|
        ..

e|-----------------------------------------------------------------|
B|-----------------------------------------------------------------|
G|-------------8-7-5----5------------------------------------------|
D|--2-2----2---8-7-5-7--5------------------------------------------|
A|--2-2-22-2---------7---------------------------------------------|
E|--0-0-00-0-------------------7///////////------------------------|
        ..

Estribillo_2
   Fuera!           Fuera!           Fuera  de  la  ley!
e|--------------------------------------------------------------------|
B|--------------------------------------------------------------------|
G|--------------------------------------------------------------------|
D|--------------------------------------------------------------------| x2
A|--------------------------------------------------------------------|
E|-3-0-3-0-3-0-3-0--2-0-2-0-2-0-2-0--1-0-1-0-1-0-1-0--0-0-0-0-0-0-0-0-|
   ...................................................................

   Fuera!           Fuera!           Fuera  de  la  ley!
e|---------------------------------------------------------------------|
B|---------------------------------------------------------------------|
G|---------------------------------------------------------------------|
D|---------------------------------------------------------------------|x2
A|---------------------------------------------------------------------|
E|-3-3-3-3-3-3-3-3--2-2-2-2-2-2-2-2--1-1-1-1-1-1-1-1--0-0-0-0-0-0-0-0--|
   ...................................................................

Final

e|---------------------------------------|
B|---------------------------------------|
G|---------------------------------------|
D|-22-22----22-22--------22-22----22-22--|
A|-22-22----22-22--------22-22----22-22--|
E|-00-00----00-00--/3^^--00-00----00-00--|
     .        .            .        .


AGUANTE EL TREN LOCO!!

TMB SENTURRIA, SENTENCIA METAL, Y LOS GARFIGDOZACHAK!!!

CIVILE NO MURIÓ CARAJO!!!
Suggest correction
Give kudos to tab author, rate the tab!
1 2 3 4 5
comments
print report bad tab
guest
You may want to rate the tab now too:
select rating
Wanna post a correction for this tab? Suggest correction