Oops, an error
Loading. Please wait.

Hoy Tab

90 views 1 this week
no commentswrite comment
1 2 3 4 5
3 more votes to show rating
add to favorites
launch autoscroll
font size
0
reset
how to read this tab
guitar tuner
×
Best way to learn
"Hoy"
Autoscroll
slow
fast
+/-
esc
set tempo
stop
Intro:

e|---------------------------------------------------|
B|---------------------------------------------------|
G|---7-7-7-7-7--7-7-7-7-7----------------------------|
D|---7-7-7-7-7--7-7-7-7-7---8-8-8-8-8--8-8-8-8-8-----| 
A|---5-5-5-5-5--5-5-5-5-5---5-5-5-5-5--5-5-5-5-5-----|
E|---------------------------------------------------|

e|-------------------------------------------------|
B|-------------------------------------------------|
G|--5-5-5-5-5--5-5-5-5-5---7-7-7-7-7--7-7-7-7-7----|
D|--5-5-5-5-5--5-5-5-5-5---7-7-7-7-7--7-7-7-7-7----|
A|--3-3-3-3-3--3-3-3-3-3---5-5-5-5-5--5-5-5-5-5----|
E|-------------------------------------------------|

Riff 1:

e|---------------------------------|
B|---7-7-6-5-----------------------|
G|----------7-7-6-5----------------|
D|-----------------7-7-6-5---------|
A|------------------------7--------|
E|---------------------------------|

Riff 2:

e|---------------|
B|---------------|
G|--7-5-7--------|
D|--7-5-7--7-5---|
A|--5-3-5--7-5---|
E|---------5-3---|

Riff 3:

e|-----------------------------------------|
B|-----------------------------------------|
G|---------------7-7-7-7-7--7-7-7-7-7------|
D|-------5-3-2---7-7-7-7-7--7-7-7-7-7------|
A|--3--5---------5-5-5-5-5--5-5-5-5-5------|
E|-----------------------------------------|

Riff 4:

e|--------------------------|
B|--------------------------|
G|--------------2-----5-----|
D|-------5-3-0--2--5--5-----|
A|--3--5--------0--5--3-----|
E|-----------------3--------|


Riff 5:

e|--------------------------|
B|--------------------------|
G|--7---3---5---------------|
D|--7---3---5----5--4--2----|
A|--5---1---3----5--4--2----|
E|------------0--3--2--0----|


Riff 6:

e|---------------------------|
B|---------------------------|
G|----7-7-7-7-7---5-5-5-5-5--|
D|----7-7-7-7-7---5-5-5-5-5--|
A|----5-5-5-5-5---3-3-3-3-3--|
E|---------------------------|


CANCION:


'Intro x2' 
'Riff 1 x3'
'Riff 2'

'Intro x2'
HOY ME VOY A JUGAR ENTERO EN EL RING
MIS PUÑOS QUIEREN NOQUEAR.
AYER LA ESCUELA ME DIO EDUCACIÓN
FORMO UN SER COBARDE Y CRUEL

'Riff 3'
HOY QUE TODO ESTA MAL
'Riff 4'
HOY ES MEJOR QUE AYER

'Intro x2'
FUI ESCLAVO DEL MÁS TERRIBLE DOLOR,
MOTOR DE MI SOLEDAD.
ATRÁS LA HUELLA QUEDO Y SIGO MI ANDAR,
POCO A POCO SANARE

'Riff 3'
HOY LA HISTORIA PUEDE CAMBIAR
'Riff 4'
HOY ES MEJOR QUE AYER

'Riff 5'
HEY! SIEMPRE HABRA UN TIEMPO Y LUGAR DONDE EMPEZAR
'Riff 5'
HEY! NO DESPERDICIARE EL HOY NUNCA MAS
'Intro (Dejar sonar la ultima nota)'
SOY UNA DISTORSIÓN FUGAZ, EL TIEMPO PASA VELOZMENTE
'Intro (Dejar sonar la ultima nota)'
HOY LO HARÉ A MI MODO Y QUE?, YO TOMARE MI CAMINO.

'Riff 6'

'Intro x2'
ES DIFÍCIL VIVIR SI NO PUEDO ESTAR 
CON VOS MI PEQUEÑA FLOR
HOY QUIERO COMPARTIR EL VINO Y BRINDAR 
CON TODOS USTEDES

'Riff 3'
HOY AMIGOS PODRÉ DECIR
'Riff 4'
QUE NO QUIERO MORIR

'Riff 5'
HEY! SIEMPRE HABRA UN TIEMPO Y LUGAR DONDE EMPEZAR
'Riff 5'
HEY! NO DESPERDICIARE EL HOY NUNCA MAS
'Intro (Dejar sonar la ultima nota)'
SOY UNA DISTORSIÓN FUGAZ, EL TIEMPO PASA VELOZMENTE
'Intro (Dejar sonar la ultima nota)'
HOY LO HARÉ A MI MODO Y QUE?, YO TOMARE MI CAMINO.

'Parte lenta y solo'

'Riff 6 x2'

'Riff 3'
HOY AMIGOS PODRÉ DECIR
'Riff 4'
QUE NO QUIERO MORIR

'Riff 5'
HEY! SIEMPRE HABRA UN TIEMPO Y LUGAR DONDE EMPEZAR
'Riff 5'
HEY! NO DESPERDICIARE EL HOY NUNCA MAS
'Intro (Dejar sonar la ultima nota)'
SOY UNA DISTORSIÓN FUGAZ, EL TIEMPO PASA VELOZMENTE
'Intro (Dejar sonar la ultima nota)'
HOY LO HARÉ A MI MODO Y QUE?, YO TOMARE MI CAMINO.

'Intro x2'


¡¡AGUANTE EL TREN!!
Suggest correction
Give kudos to tab author, rate the tab!
1 2 3 4 5
comments
print report bad tab
guest
You may want to rate the tab now too:
select rating
Wanna post a correction for this tab? Suggest correction