Oops, an error
Loading. Please wait.

Pan Y Vino Bass

45 views 3 this week
no commentswrite comment
1 2 3 4 5
3 more votes to show rating
add to favorites
launch autoscroll
font size
0
reset
guitar tuner
×
Best way to learn
"Pan Y Vino"
Autoscroll
slow
fast
+/-
esc
set tempo
stop
   E  E  E  E  E  E  E  E  E  E  E  E  E  E  E  E  E  E   E
G|-10-10-------10-10-------10-10-11-10-----------------------|
D|-------11-11-------11-11-------------13-11-13--------------|
A|-----------------------------------------------11-11-11-11-|
E|-----------------------------------------------------------|


   E  E  E  E  E  E  E  E E  E  E  E  E  E  E  E  E  E  E
G|-10-10-11-11-10---10-10----------------------------------|
D|----------------13------13-11-13-13-11-10-13-11-11-11-11-|
A|---------------------------------------------------------|
E|---------------------------------------------------------|


   E E E E E E E E E E E E E E E E E E E
G|---------------------------------------|
D|---------------------------------------|
A|-8-8-----8-8-----8-8-9-8-6-4-6---------|
E|-----9-9-----9-9---------------4-4-4-4-|


   E E E E E E  E E  E E E  E  E E  E E E E E
G|--------------------------------------------|
D|--------------------------------------------|
A|-8-8-9-9-8----8-8---------------------------|
E|-----------11-----11-9-11-11-9-8-11-9-9-9-9-|


Duration Legend
---------------
W - whole   (Redondas)
H - half    (Blancas)
Q - quarter (Negras)
E - 8th     (Corcheas)
S - 16th    (Semi-corcheas)
T - 32nd    (Fusas)
X - 64th    (Semi-fusas)
Suggest correction
Give kudos to tab author, rate the tab!
1 2 3 4 5
comments
print report bad tab
guest
You may want to rate the tab now too:
select rating
Wanna post a correction for this tab? Suggest correction