Oops, an error
Loading. Please wait.

Patrulla Bonaerense Tab

5 views 1 this week
no commentswrite comment
1 2 3 4 5
3 more votes to show rating
add to favorites
launch autoscroll
font size
0
reset
how to read this tab
guitar tuner
Autoscroll
slow
fast
+/-
esc
set tempo
stop
Help us to improve Ultimate-Guitar.com Take our survey!
×
Intro:
e---------------------
B---------------------
G---------------------
D-7----8----7----5----
A-5----6----5----3----
E---------------------

Riff 1:
e-----------------------------------------
B-----------------------------------------
G-----------------------------------------
D--------------------------------10-9-7-9-
A---------------------------------8-7-5-7-
E-0-0-0-0-0-0-0-0-0-0-0-0-0-0-0-0---------
 pm..............................

Riff 2:
e---------------------------------
B---------------------------------
G---------------------------------
D---------------------------------
A-9-9-9-9-9-9-9-9-----------------
E-----------------7-7-7-7-7-7-7-7-
 pm..............................

Riff 3:
e---------------------------------------------------------
B---------------------------------------------------------
G---------------------------------------------------------
D---------------------------------------------------------
A-9-9-9-9-9-9-9-9-9--9-9--9-8--8-8--8-7--7-7--710--101010-
E-----------------7--7-7--7-6--6-6--6-5--5-5--5-8---8-8-8-
 pm..............

Riff 4:
e------------------------------------------------
B------------------------------------------------
G------------------------------------------------
D------------------------------------------------
A-2-2-3-4-5--2-2-3-4-5--2-2-3-4-5--2-3-3-3-3-3-3-
E-0-0-1-2-3--0-0-1-2-3--0-0-1-2-3--0-1-1-1-1-1-1-
pm  .          .          .          ...........


(Intro x4)

(Riff 1 x2)
Mientras te humillan contra la pared
Alguien asalta a un remisero
(Riff 2)
Quién es quién?

(Riff 1 x2)
Mientras coimean en un cabaret
Alguien viola a una pendeja
(Riff 3)
Quién es quién?

Patrulla bonaerense
Te pega donde más duele!

(Riff 4)

(Riff 1 x2)
Panzas azules no pueden correr
Al traficante de bebes
(Riff 2)
Quién es quién?

(Riff 1 x2)
Ellos se cagan en tus derechos
Y te atropellan a cualquier precio
(Riff 2)
Quién es quién?

Patrulla bonaerense
Te pega donde más duele
Suggest correction
Give kudos to tab author, rate the tab!
1 2 3 4 5
comments
print report bad tab
guest
You may want to rate the tab now too:
select rating
Wanna post a correction for this tab? Suggest correction