Oops, an error
Loading. Please wait.

Piso Al Taco Tab

49 views 1 this week
no commentswrite comment
1 2 3 4 5
3 more votes to show rating
add to favorites
launch autoscroll
font size
0
reset
how to read this tab
guitar tuner
×
Best way to learn
"Piso Al Taco"
Autoscroll
slow
fast
+/-
esc
set tempo
stop
INTRO:
E|---------------------------------------------------------------------------
B|---------------------------------------------------------------------------
G|---------------------------------------------------------------------------
D|---------4--5-4-------------4--5-4-----------------------------------------
A|--2-2-----------5----2-2-----------5---------------------------------------
E|--0-0----------------0-0---------------------------------------------------
    . .                . .

E|---------------------------------------------------------------------------
B|---------------------------------------------------------------------------
G|---------------------------------------------------------------------------
D|--5-5---------------7-7----5-4h5p4-----------------------------------------
A|--3-3----5--7p5-----5-5------------5---------------------------------------
E|---------------------------------------------------------------------------
    . .               . .

RIFF #1

E|-------------------|-------------------|-------------------|---------------------|
B|-------------------|-------------------|-------------------|---------------------|
G|---------5----2-2--|---------7----5-5--|---------5----2-2--|---------------------|
D|---------5----2-2--|---------7----5-5--|---------5----2-2--|--2-3-2h3p2---2------|
A|--0-0--0----0------|--0-0--0----0------|--0-0--0----0------|------------3---3-2--|
E|-------------------|-------------------|-------------------|---------------------|
    . .  .    .         . .  .    .         . .  .    .  

E|---------------------------------------------------------------------------
B|---------------------------------------------------------------------------
G|---------------------------------------------------------------------------
D|--2----%----%----%----5----------------------------------------------------
A|--0-------------------3--5-------------------------------------------------
E|-------------------------3-------------------------------------------------
Suggest correction
Give kudos to tab author, rate the tab!
1 2 3 4 5
comments
print report bad tab
guest
You may want to rate the tab now too:
select rating
Wanna post a correction for this tab? Suggest correction