Oops, an error
Loading. Please wait.

Rostro Oscuro Tab

70 views 1 this week
no commentswrite comment
1 2 3 4 5
3 more votes to show rating
add to favorites
launch autoscroll
font size
0
reset
how to read this tab
guitar tuner
×
Best way to learn
"Rostro Oscuro"
Autoscroll
slow
fast
+/-
esc
set tempo
stop
[RITMO1]:
   Em(Mim)   Bm(SIm)   Am(Lam)    Cm(DOm)    G(SOL)
E:---------|---------|---------|-----------|--------------------------
D:-7-----7-|-9-----9-|-7-----7-|-3---------|-5----------5-5-5-5-5-----
A:-----9---|-----9---|-----7---|-----5-----|-----5------------3-5-----
g:---9-----|---7-----|---5-----|---5-----5-|---4-----4--4-5-4---------
b:-8-----8-|-7-----7-|-5-----5-|-4-----4---|-3-----3------------------
e:---------|---------|---------|-----------|-----------------------0e-

Nota: Para quienes tenga la pedalera de efectos Zoom G2 con el efecto Nº21
      zafa bastante y para la distorsión el efecto que esta en el Nº20.


[RITMO1]
Metalero valor, era mi amigo él
Rostro oscuro que batalla.
La amistad, veras, es como un camino que la tierra cruza
Pues en verdad al comenzar la tierra no tiene rutas.
Pero cuando muchos hombres marchan en la misma dirección
Allí surge el camino...


C5          B5
Brindo por vos hermano amigo
C5              B5                  D5
Brindo por los ausentes y presentes
                  F5
Las mujeres y el metal!
A5               B5
El vino, algún vicio y nuestra amistad

F5-E5... G5-F5-E5... x4


ohhhhhhhhhh [ E5 - F#5 - G5 - A5 - G5/F#5 - F5 - E5 x2 ]

[Solo]


Cuando Vos te fuiste la primer sorprendida
sin duda fue la muerte.


[Aca hace para la siguente estrofa un arpegio donde desciende
desde G5 con el efecto mas tranqui]

E:---------------------------------------------------
D:-------10--------12-----7------11------5------------
A:----12--------13------9------9-------7----------7-5-
g:-12--------13-------9------9-------7------5-5-4-----
b:---------------------------------------------------
e:---------------------------------------------------


En la estación de tren se metió esta vez
para salvar a un amigo
Pero no volvió, "era uno de la villa?, fue el comentario
De ciertos burgueses pacatos del barrio, nosotros recordamos

F5
Amigos del barrio, la escuela y el bar, con sangre valiente,
                         C5
Murió como él mas fuerte.

C5          B5
Brindo por vos hermano amigo
C5              B5                  D5
Brindo por los ausentes y presentes
                  F5
Las mujeres y el metal!
A5               B5
El vino, algún vicio y nuestra amistad
Suggest correction
Give kudos to tab author, rate the tab!
1 2 3 4 5
comments
print report bad tab
guest
You may want to rate the tab now too:
select rating
Wanna post a correction for this tab? Suggest correction