Oops, an error
Loading. Please wait.

Ruta 197 Tab

31 views 1 this week
no commentswrite comment
1 2 3 4 5
3 more votes to show rating
add to favorites
×
Save as Personal and add changes to this tab that will be seen only by you. Learn more ›
×
You can save this tab as Personal to edit and correct it or add notes. All changes will be seen only by you. Learn more »
save as personal
new!
launch autoscroll
font size
0
reset
how to read this tab
guitar tuner
Autoscroll
slow
fast
+/-
esc
set tempo
stop
Intro:

e|---------------------------------------------------|
B|---------------------------------------------------|
G|---------------3---------------3---------------3---|
D|---2-2-2-2-2-2-3---2-2-2-2-2-2-3---2-2-2-2-2-2-3---|
A|---2-2-2-2-2-2-1---2-2-2-2-2-2-1---2-2-2-2-2-2-1---|
E|---0-0-0-0-0-0-----0-0-0-0-0-0-----0-0-0-0-0-0-----|

e|-------------------|
B|-------------------|
G|-------3------3----|
D|---2-2-3--2-2-3----|
A|---2-2-1--2-2-1----|
E|---0-0----0-0------|

Riff 1:

e|-----------------------------------|
B|-----------------------------------|
G|--5----7----5----------------------|
D|--5----7----5----5----3----3-4-----|
A|--3----5----3----5----3----3-4-----|
E|-----------------3----1----1-2-----|

Riff 2:

e|-----------------------------------------------------|
B|-----------------------------------------------------|
G|--5--------------------------------------------------|
D|--5--------------------------------------------------|
A|--3-3-3-3-3-5-5-5-5-5-3-3-3-3-3----------------------|
E|--------------------------------3-3-3-3-3-1-1-1-1-1--|

Riff 3:

e|----------------------------|
B|----------------------------|
G|-------0-----0------3-------|
D|-----2-----2------3---------|
A|---3-----2------1-----------|
E|----------------------------|

Riff 4:

e|-----------------------|
B|-----------------------|
G|-----------------------|
D|---2-2-2-2-2-2-2-2-2---| Repite
A|---2-2-2-2-2-2-2-2-2---|
E|---0-0-0-0-0-0-0-0-0---|

Riff 5:

e|--------------------------|
B|--------------------------|
G|--------------------------|
D|--------------------------|  Repite
A|--------------------------|
E|-0-0-0-1-0-0-0-3-0-0-0-1--|


CANCION:

'Intro x 4'

'Riff 1'
NEGRO ALQUITRÁN QUE TRANSPIRA LA SAL DEL ANDEN
'Riff 2'
ROSTROS CANSADOS QUE BAJAN DEL TREN EN NOGUES
'Riff 1'
RUTA ARGENTINA Y MÍA, YO TE QUIERO CANTAR
'Riff 1'
EXPRESIÓN CON BANQUINAS, SOS ESPEJO DEL VERDADERO PAÍS

'Intro x 1'

'Riff 3'          'Riff 4'
SANGRE EN LA RUTA 197
'Riff 3'
MAGIA Y MISTERIO,
               'Riff 4'
UNA ESTIRPE BARRIAL


'Riff 1'
TEÑIDA EN MIL RIÑAS Y PIÑAS DE ROJO COLOR.
'Riff 2'
BRILLA TU BREA CALIENTE BAÑADA DE SOL
'Riff 1'
LA AUTORIDAD ROBA Y PROTEGE AL LADRÓN
'Riff 1'
COUNTRIES, CHORIPAN, VIVEROS Y EL BESO DE UNA MUJER

'Intro x 1'

'Riff 3'          'Riff 4'
SANGRE EN LA RUTA 197
'Riff 3'
MAGIA Y MISTERIO,
               'Riff 4'
UNA ESTIRPE BARRIAL

'Riff 5'
RUTA! 197! RUTA!, VIAJE, BARRO Y ZANJON!
'Riff 5'
RUTA! 197! RUTA!, VIAJE, BARRO Y ZANJON!

'Solo'

'Riff 1'
AROMA A GINEBRA, AMORES, AMIGOS UN BAR
'Riff 2'
LA GENTE, LAS MISAS, HEREJES Y JOSÉ C. PAZ
'Riff 1'
PAVIMENTO INUNDADO DEL ETERNO CALLAO
'Riff 1'
ORGULLOSO EN SUS ARRUGAS SE INTERNA PEREZOSO EN GRAND BOURG

'Intro x 1'

'Riff 3'          'Riff 4'
SANGRE EN LA RUTA 197
'Riff 3'
MAGIA Y MISTERIO,
               'Riff 4'
UNA ESTIRPE BARRIAL


RUTA! 197! RUTA!, VIAJE, BARRO Y ZANJON!
RUTA! 197! RUTA!, VIAJE, BARRO Y ZANJON!
HEY! HEY! HEY! HEY! HEY! HEY! RUTA 197!
Suggest correction
Give kudos to tab author, rate the tab!
1 2 3 4 5
comments
print report bad tab
guest
Wanna post a correction for this tab? Suggest correction