Oops, an error
Loading. Please wait.

Sin Destino Tab

13 views 1 this week
no commentswrite comment
1 2 3 4 5
3 more votes to show rating
add to favorites
launch autoscroll
font size
0
reset
how to read this tab
guitar tuner
×
Best way to learn
"Sin Destino"
Autoscroll
slow
fast
+/-
esc
set tempo
stop
Es para que se orienten un poco porque me parece que esta para la mierda.

 Sin destino...

1|------------------------------------------------------------------|
2|------------------------------------------------------------------|
3|---------------------------4-----------7-----------2--------------|
4|---4-----------2-----------4-----------7-----------2--------------|
5|---4-----------2-----------2-2-2-2-2-2-5-5-5-5-5-5-0-0-0-0-0-0----|
6|---2-2-2-2-2-2-0-0-0-0-0-0----------------------------------------|

1|-------------------------------------------------|
2|-------------------------------------------------|
3|-------------------------------------------------|
4|---4--2/4-2/4-2/4-2-------4--2/4-2/4-2/4-2-------|
5|---4--2/4-2/4-2/4-2-------4--2/4-2/4-2/4-2-------|
6|---2--0/2-0/2-0/2-0-0-0-0-2--0/2-0/2-0/2-0-0-0-0-|


1|-------------------------------------------------|
2|-------------------------------------------------|
3|-------------------------------------------------|
4|---4--2/4-2/4-2/4-2-------4--2/4-2/4-2/4-2-------|
5|---4--2/4-2/4-2/4-2-------4--2/4-2/4-2/4-2-------|
6|---2--0/2-0/2-0/2-0-0-0-0-2--0/2-0/2-0/2-0-0-0-0-|


  Ruge la histeria en el penal...

1|-----------------------------------------------|
2|-----------------------------------------------|
3|----------------------2--------------------4/2-|
4|---4------------------2-4------------------4/2-|
5|---4------------------0-4------------------2/0-|
6|---2-2--2-2--2-2--2-2---2-2--2-2--2-2--2-2-----|

1|-----------------------------------------------|
2|-----------------------------------------------|
3|----------------------2--------------------4/2-|
4|---4------------------2-4------------------4/2-|
5|---4------------------0-4------------------2/0-|
6|---2-2--2-2--2-2--2-2---2-2--2-2--2-2--2-2-----|

1|-----------------------------------------------|
2|-----------------------------------------------|
3|----------------------2--------------------4-2-|
4|---4------------------2-4------------------4-2-|
5|---4------------------0-4------------------2-0-|
6|---2-2--2-2--2-2--2-2---2-2--2-2--2-2--2-2-----|

1|-----------------------------------------------|
2|-----------------------------------------------|
3|----------------------2--------------------4/2-|
4|---4------------------2-2------------------4/2-|
5|---4------------------0-4------------------2/0-|
6|---2-2--2-2--2-2--2-2---2-2--2-2--2-2--2-2-----|

  Sin destino,sin piedad...

1|-------------------------------------------|
2|-------------------------------------------|
3|-------2-------7/9------2-------7--11/9----|
4|---4---2---2---7/9--4---2---2---7--11/9----|
5|---4---0---2---5/7--4---0---2---5--9-/7----|
6|---2-------0--------2-------0--------------|

  Hay un lugar intacto en mi cabeza...

1|----------------|
2|----------------|
3|---2---4--------|
4|---2---4---4----|
5|---0---2---4----|
6|-----------2----|

  Sin destino,sin destino...

1|-----------------------------------------------------------------------|
2|-----------------------------------------------------------------------|
3|---4--2-----------------------------------------------------4--2-------|
4|---4--2--5--4--4--2/4-2/4-2/4-2-------4--2/4-2/4-2/4-2------4--2--5--4-|
5|---2--0--5--4--4--2/4-2/4-2/4-2-------4--2/4-2/4-2/4-2------2--0--5--4-|
6|---------3--2--2--0/2-0/2-0/2-0-0-0-0-2--0/2-0/2-0/2-0-0-0--------3--2-|

1|------------------------------------------------------------------------|
2|------------------------------------------------------------------------|
3|------------------------------------------------------------------------|
4|-4--2/4-2/4-2/4-2-------4--2/4-2/4-2/4-2-------4--2/4-2/4-2/4-2-------4-|
5|-4--2/4-2/4-2/4-2-------4--2/4-2/4-2/4-2-------4--2/4-2/4-2/4-2-------4-|
6|-2--0/2-0/2-0/2-0-0-0-0-2--0/2-0/2-0/2-0-0-0-0-2--0/2-0/2-0/2-0-0-0-0-2-|

1|------------------------|
2|------------------------|
3|------------------------|
4|-2/4-2/4-2/4-2----------|
5|-2/4-2/4-2/4-2----------|
6|-0/2-0/2-0/2-0-0-0-0----|

  De los internos en el penal...

1|--------------------------------------------------------------------|
2|--------------------------------------------------------------------|
3|----------------------2--------------------4-2--------------------2-|
4|---4------------------2-4------------------4-2-4------------------2-|
5|---4------------------0-4------------------2-0-4------------------0-|
6|---2-2--2-2--2-2--2-2---2-2--2-2--2-2--2-2-----2-2--2-2--2-2--2-2---|

1|--------------------------------------------------------------------|
2|--------------------------------------------------------------------|
3|--------------------4/2--------------------2--------------------4-2-|
4|-4------------------4/2-4------------------2-4------------------4-2-|
5|-4------------------2/0-4------------------0-4------------------2-0-|
6|-2-2--2-2--2-2--2-2-----2-2--2-2--2-2--2-2---2-2--2-2--2-2--2-2-----|

1|--------------------------------------------------|
2|--------------------------------------------------|
3|----------------------2--------------------4/2----|
4|---4------------------2-4------------------4/2----|
5|---4------------------0-4------------------2/0----|
6|---2-2--2-2--2-2--2-2---2-2--2-2--2-2--2-2--------|

  Año tras año,la misma historia...

1|--------------------------------------------|
2|--------------------------------------------|
3|-------2-------7/9------2-------7---11/9----|
4|---4---2---2---7/9--4---2---2---7---11/9----|
5|---4---0---2---5/7--4---0---2---5---9-/7----|
6|---2-------0--------2-------0---------------|

  Hay un lugar intacto en mi cabeza...

1|----------------|
2|----------------|
3|---2---4--------|
4|---2---4---4----|
5|---0---2---4----|
6|-----------2----|

  Sin destino,sin destino...

1|----------------------------------------|
2|----------------------------------------|
3|-4--2-----------------------------------|
4|-4--2--5--4-2/4-----------2/4-----------|
5|-2--0--5--4-2/4-----------2/4-----------|
6|-------3--2-0/2-2-2-2-2-2-0/2-2-2-2-2-2-|

1|-------------------------------------|
2|-------------------------------------|
3|--------------------------4--2-------|
4|-2/4-----------2/4---2-4--4--2--5--4-|
5|-2/4-----------2/4---2-4--2--0--5--4-|
6|-0/2-2-2-2-2-2-0/2-2-0-2--------3--2-|


1|--------------------------------------------------------|
2|--------------------------------------------------------|
3|-----2/4-2/4-2/4--2/4-2/4-2/4--2/4-2/4-2/4--2/4-2/4-2/4-|
4|-----2/4-2/4-2/4--2/4-2/4-2/4--2/4-2/4-2/4--2/4-2/4-2/4-|
5|---0-0/2-0/2-0/2--0/2-0/2-0/2--0/2-0/2-0/2--0/2-0/2-0/2-|
6|--------------------------------------------------------|

1|----------------------------------------------------------------|
2|----------------------------------------------------------------|
3|-4--2/4-2/4-2/4-2-------4--2/4-2/4-2/4-2-------4--2/4-2/4-2/4-2-|
4|-4--2/4-2/4-2/4-2-------4--2/4-2/4-2/4-2-------4--2/4-2/4-2/4-2-|
5|-2--0/2-0/2-0/2-0-0-0-0-2--0/2-0/2-0/2-0-0-0-0-2--0/2-0/2-0/2-0-|
6|----------------------------------------------------------------|

  Sin destino,sin testigos...

1|--------------------------------------------------------|
2|--------------------------------------------------------|
3|---4--2-------------------------------------------------|
4|---4--2--5--4-2/4-----------2/4-----------2/4-----------|
5|---2--0--5--4-2/4-----------2/4-----------2/4-----------|
6|---------3--2-0/2-2-2-2-2-2-0/2-2-2-2-2-2-0/2-2-2-2-2-2-|

1|---------------------------------------------------|
2|---------------------------------------------------|
3|------------4--2-----------------------------------|
4|--2/4---2-4-4--2--5--4-2/4-----------2/4-----------|
5|--2/4---2-4-2--0--5--4-2/4-----------2/4-----------|
6|--0/2-2-0-2-------3--2-0/2-2-2-2-2-2-0/2-2-2-2-2-2-|

1|---------------------------|
2|---------------------------|
3|---------------------------|
4|---2/4-----------2/4---2-4-|
5|---2/4-----------2/4---2-4-|
6|---0/2-2-2-2-2-2-0/2-2-0-2-|

  El solo lo estoy sacando.¡Y me sale para el culo!

1|--------------------------------------------------------------|
2|--------------------------------------------------------------|
3|--------------------------------------------------------------|
4|---4--2/4-2/4-2/4-2-------4--2/4-2/4-2/4-2-------4-2/4-2/4-2/4|
5|---4--2/4-2/4-2/4-2-------4--2/4-2/4-2/4-2-------4-2/4-2/4-2/4|
6|---2--0/2-0/2-0/2-0-0-0-0-2--0/2-0/2-0/2-0-0-0-0-2-0/2-0/2-0/2|

1|--------------------------------|
2|--------------------------------|
3|--------------------------------|
4|-2-------4--2/4-2/4-2/4-2-------|
5|-2-------4--2/4-2/4-2/4-2-------|
6|-0-0-0-0-2--0/2-0/2-0/2-0-0-0-0-|

1|-----------------------------------------|
2|-----------------------------------------|
3|------------------------4----------------|
4|-2/4-2/4-2/4--2/4-2/4-2-4----2/4-2/4-2/4-|
5|-2/4-2/4-2/4--2/4-2/4-2-2----2/4-2/4-2/4-|
6|-0/2-0/2-0/2--0/2-0/2-0------0/2-0/2-0/2-|
Suggest correction
Give kudos to tab author, rate the tab!
1 2 3 4 5
comments
print report bad tab
guest
You may want to rate the tab now too:
select rating
Wanna post a correction for this tab? Suggest correction