Oops, an error
Loading. Please wait.

Soy Del Sur Tab

33 views 1 this week
no commentswrite comment
1 2 3 4 5
3 more votes to show rating
add to favorites
×
Save as Personal and add changes to this tab that will be seen only by you. Learn more ›
launch autoscroll
font size
0
reset
how to read this tab
guitar tuner
Autoscroll
slow
fast
+/-
esc
set tempo
stop
Intro
                                     4x
E||----------------------------------||----------|
B||----------------------------------||----------|
G||*--------------------------------*||----------|
D||*--------------------------------*||----------|
A||----------------------------------||----------|
E||---3p0-0-3p0-0-3p0-0-3p0-0-5--5---||----------|


Sudor, aguante, corazón y dolor
El Sur es pueblo, es amigo, es pasión...
--
Es un honor ser recibido en tu piel
Tierra de héroes, de Varela hasta Glew
|---------------------------------||
|---------------------------------||
|*-------------------------------*||
|*-------------------------------*||
|---5------7----2-----------------||
|---3--3-3-5--5-0--0-0-0-0-0-0-0--||

Un estilo, un abrigo, una grandeza, un camino
--
Berazategui, Alsina, Spegazzini hasta Ushuaia
|----------------------------------|
|----------------------------------|
|----------------------------------|
|------------------4-----4---------|
|--5-----5---------2-2-2-2-2-2-2-2-|
|--3-3-3-3-3-3-3-3-----------------|


Soy del Sur!
|-------------------------------||
|-------------------------------||
|*-----------------------------*||
|*--5----7--9------------------*||
|---3----5--7-------------------||
|--------------0-0-0-0-0-0-0-0--||

Soy
|----------------------------------|
|----------------------------------|
|------2-----5-----2-----5-----2---|
|--3-3---3-3---3-3---3-3---3-3---3-|
|----------------------------------|

Del
----------------------------------||
----------------------------------||
----------------------------------||
------4-----7-----4-----7-----4---||
--5-5---5-5---5-5---5-5---5-5-----||
----------------------------------||

Sur! Del Sur! Si!
||---------------------------------------||
||---------------------------------------||
||*-------------------------------------*||
||*------10-9-----10-9-----10-9---------*||
||-------8--7-----8--7-----8--7----------||
||---0-0------0-0------0-0------0-0-0-0--||


Puente

---------------------------|------------------------||
---------------------------|------------------------||
*--------------------------|--------4-----4~-------*||
*-----4--5-----4--5--7--4--|--5--7-----5-----------*||
---7--------7--------------|------------------------||
---------------------------|------------------------||

----------------------------|---------7-----7~--------||
------7--8-----7--8--10--7--|--8--10-----8------------||
*--9--------9---------------|------------------------*||
*---------------------------|------------------------*||
----------------------------|-------------------------||
----------------------------|-------------------------||


Me siento contento
Con tu arraigo y tu aliento
Cual viento sureño capaz de resistir
El Roca no afloja y se mete en tu vientre
Marcando tu orgullo, herencia del Sur
                          4x
--------------------------||----------------------------------||
--------------------------||----------------------------------||
*------------------------*||*--------------------------------*||
*------------------------*||*--------------------------------*||
--------------------------||----------------------------------||
---3p0-0-3p0-0------------||---3p0-0-3p0-0-3p0-0-3p0-0-5--5---||
Suggest correction
Give kudos to tab author, rate the tab!
1 2 3 4 5
comments
print report bad tab
guest
You may want to rate the tab now too:
select rating
Wanna post a correction for this tab? Suggest correction