Oops, an error
Loading. Please wait.

Tempestades Tab

52 views 1 this week
no commentswrite comment
1 2 3 4 5
3 more votes to show rating
add to favorites
launch autoscroll
font size
0
reset
how to read this tab
guitar tuner
×
Best way to learn
"Tempestades"
Autoscroll
slow
fast
+/-
esc
set tempo
stop
INTRO:

E|---------------------------------------------------------------------------
B|---------------------------------------------------------------------------
G|------9--------5------7------4/5--5--4-------------------------------------
D|------7--------3------5------2/3--3--2-------------------------------------
A|--0-0---0-0--0----0-0---0--0-----------------------------------------------
E|---------------------------------------------------------------------------
    . .   . .  .    . .   .  . 

E|---------------------------------------------------------------------------
B|---------------------------------------------------------------------------
G|------9--------5------7-----------5---4h5p4~~~-----------------------------
D|------7--------3------5-------4/5---5--------------------------------------
A|--0-0---0-0--0----0-0---0--0-----------------------------------------------
E|---------------------------------------------------------------------------
    . .   . .  .    . .   .  . 

E|---------------------------------------------------------------
B|---------------------------------------------------------------
G|--------9---9--------5---5--------7---7--------9---9-----------
D|--------7---7--------3---3--------5---5--------7---7-----------
A|--0-0-0---0----0-0-0---0----0-0-0---0----0-0-0---0-------------
E|---------------------------------------------------------------
    . . .   .    . . .   . .  . . .   .    . . .   .

Cuando la tempestad...


SOLO:
E|-----------------3/5-------------------------------------------------------
B|--3/5----------------6-5----------------------------5-5~~~-----------------
G|------7-5-4--------------7-5-4~---5/7-5-4-------5/7------------------------
D|------------7~----------------------------7-5~-----------------------------
A|---------------------------------------------------------------------------
E|---------------------------------------------------------------------------

E|---------------------------------------------------------------------------
B|---------------------------------------------------------------------------
G|---------7/9~--10-12-10/12~--10-9h10p9------9-10-9/10~--9h10p9-------------
D|--7--9--------------------------------12~----------------------12-10~------
A|--5--7---------------------------------------------------------------------
E|---------------------------------------------------------------------------

E|--------------------15^-(17)--16~~~----16-17~~~-------------------------
B|--12/15-17-18~~~--------------------17------------------------------------
G|---------------------------------------------------------------------------
D|---------------------------------------------------------------------------
A|---------------------------------------------------------------------------
E|---------------------------------------------------------------------------
Suggest correction
Give kudos to tab author, rate the tab!
1 2 3 4 5
comments
print report bad tab
guest
You may want to rate the tab now too:
select rating
Wanna post a correction for this tab? Suggest correction