Oops, an error
Loading. Please wait.

Tierra Negra Tab

161 views 3 this week
no commentswrite comment
1 2 3 4 5
3 more votes to show rating
add to favorites
launch autoscroll
font size
0
reset
how to read this tab
guitar tuner
×
Best way to learn
"Tierra Negra"
Autoscroll
slow
fast
+/-
esc
set tempo
stop
Intro:
e-----------------------------------------------------------
B-----------------------------------------------------------
G-----------------------------------------------------------
D-9-10-9-10-9-7-9-10-9-10-9-7-9-10-9-10-9-7-9-10-9-10-9-7-9-
A-7--8-7--8-7-5-7--8-7--8-7-5-7--8-7--8-7-5-7--8-7--8-7-5-7-
E-----------------------------------------------------------

Riff 1:
e---------------------
B---------------------
G---------------------
D-----------------9/7-
A-----------------7/5-
E-0-0-0-0-0-0-0-0-----
 pm..............

Versos:
e---------------------------------------------------------------------------
B---------------------------------------------------------------------------
G---------------------------------------------------------------------------
D---------------------------------9/7---------------------------------9/7---
A---------------------------------7/5---------------------------------7/5-4-
E-0-0-0-0-0-0-0-0-0-0-0-0-0-0-0-0-----0-0-0-0-0-0-0-0-0-0-0-0-0-0-0-0-----2-
 pm..............................     ...............................

e-------------------------------------
B-------------------------------------
G-------------------------------------
D-------------------------------------
A-------------7--7--------------7--7--
E-2-2-2-2-2-2-5--5--2-2-2-2-2-2-5--5--
 pm..........       ...........

Estribillo:
e---------------------------------------------------------------------------
B---------------------------------------------------------------------------
G---------------------------------------------------------------------------
D---10----9-10-9---10---9-10-9---10---------------10---9-10-9---10---9-10-9-
A-7-----7--------7----7--------7-----10---12----7----7--------7----7--------
E---------------------------------------------------------------------------

e-----------------
B-----------------
G-----------------
D---10------------
A-7-----10---12---
E-----------------

Riff 2:
e------------------------
B------------------------
G------------------------
D---------------------5--
A---------------------3--
E-1-0-0-1-0-0-1-0-0-1----
 pm..................

Riff 3:
e-------------
B-------------
G-------------
D-------------
A-------------
E-0-0-0-0-0-2-
 pm...........

Solo:
e---------------------------------------------------------------------------
B-5--8-7--7--3-5--5--8-7--3--5----2-----------------------------------------
G---------------------------------------------------------------------------
D-----------------------------------9-10-9-10-9-7-9-10-9-10-9-7-9-10-9-10-9-
A-----------------------------------7--8-7--8-7-5-7--8-7--8-7-5-7--8-7--8-7-
E---------------------------------------------------------------------------

e-----------------------------------------------------------------
B------------------21b--21br-19-19-21-20~~-20p19p17-15-15-21-16b--
G-----------------------------------------------------------------
D-7-9-10-9-10-9-7-------------------------------------------------
A-5-7--8-7--8-7-5-------------------------------------------------
E-----------------------------------------------------------------

Final:
e---------------------------------------------------------------------------
B---------------------------------------------------------------------------
G---------------------------------------------------------------------------
D---10----9-10-9-7------9-10-9-7------9-10-9-10-9-10-9-7-9-10-8-10-9-7-9-10-
A-7-----7----------7--7----------7--7------7--8-7--8-7-5-7--8-7--8-7-5-7--8-
E---------------------------------------------------------------------------

e---------------------------
B---------------------------
G---------------------------
D-9-10-9-7-9-10-9-10-9-7-9--
A-7--8-7-5-7--8-7--8-7-5-7--
E---------------------------


(Intro)
(Riff 1 x4)
(Versos)
Fondo blanco en la vereda
La mano negra que te acecha otra vez
Me señalan con el dedo
por ser de donde naci

(Estribillo)
Eh! yo soy del tren
del terraplen
soy tierra negra del bajo
Cual es?!
Eh! yo soy del tren
del terraplen
soy tierra negra del bajo
Y que?!
(Riff 1 x4)

(Versos)
Hay mucha gente gastada
Que tiene droga en la sien
Quien podra tirar la piedra
Si cada uno es un estafador

(Estribillo)
Eh! yo soy del tren
del terraplen
soy tierra negra del bajo
Cual es?!
Eh! yo soy del tren
del terraplen
soy tierra negra del bajo
Y que?!

(Riff 2 x4, Riff 3 x8)
Tierra negra!
Tierra negra!
Oh! oh! oh! oh! oh! oh!

(Solo)

Los pastores impostores
Y los chantas políticos de hoy

(Estribillo)
Eh! yo soy del tren
del terraplen
soy tierra negra del bajo
Cual es?!
Eh! yo soy del tren
del terraplen
soy tierra negra del bajo
Y que?!
Suggest correction
Give kudos to tab author, rate the tab!
1 2 3 4 5
comments
print report bad tab
guest
You may want to rate the tab now too:
select rating
Wanna post a correction for this tab? Suggest correction