Oops, an error
Loading. Please wait.

Ultima Noche En Tokyo Tab

17 views 1 this week
no commentswrite comment
1 2 3 4 5
3 more votes to show rating
add to favorites
launch autoscroll
font size
0
reset
how to read this tab
guitar tuner
×
Best way to learn
"Ultima Noche En Tokyo"
Autoscroll
slow
fast
+/-
esc
set tempo
stop
INTRO:

E|---------------------------------------------------------------------------
B|---------------------------------------------------------------------------
G|--2--4--5-4-2--------------------------------------------------------------
D|--------------5------------------------------------------------------------
A|---------------------------------------------------------------------------
E|---------------------------------------------------------------------------

E|---------------------------------------------------------------------------
B|---------------------------------------------------------------------------
G|-----9-8~~~-----------8-7~~~-----------7-6~~~------------------------------
D|--2-----------2-2--2-----------2-2--2--------------------------------------
A|--0-----------0-0--0-----------0-0--0--------------------------------------
E|------------------------------------------------0--------------------------
    .           . .  .           . .  .           . 

E|---------------------| |---------------------------------------------------
B|---------------------| |---------------------------------------------------
G|---------------------| |---------------------------------------------------
D|---------------------| |---------------------------------------------------
A|----5--5/7--7--7-----| |-----5--5/7--7--7--3-------------------------------
E|----3--3/5--5--5-----| |-----3--3/5--5--5--1-------------------------------


RIFF #1
E|---------------------------------------------------------------------------
B|---------------------------------------------------------------------------
G|---------------------------------------------------------------------------
D|--2------------------------------------------------------------------------
A|--0--0-2--3-2-0------------------------------------------------------------
E|----------------3----------------------------------------------------------

E|---------------------------------------------------------------------------
B|---------------------------------------------------------------------------
G|---------------------------------------------------------------------------
D|-------5----------%--------------------------------------------------------
A|--3----3----2--------------------------------------------------------------
E|--1---------0--------------------------------------------------------------
Suggest correction
Give kudos to tab author, rate the tab!
1 2 3 4 5
comments
print report bad tab
guest
You may want to rate the tab now too:
select rating
Wanna post a correction for this tab? Suggest correction