Oops, an error
Loading. Please wait.

Whos Fucked Up Tab

912 views 1 this week
no commentswrite comment
1 2 3 4 5
please rate
add to favorites
launch autoscroll
font size
0
reset
how to read this tab
guitar tuner
Autoscroll
slow
fast
+/-
esc
set tempo
stop
Help us to improve Ultimate-Guitar.com Take our survey!
×
Contributor
Difficulty
Arkanis 100
intermediate
Trepalium official website:  http://www.myspace.com/trepal

Tabbed by: Arkanis
Email: lerror_systeml@hotmail.com

Tuning: CGCFAD


--------------------|          ------------------
--------------------|          ------------------
--------------------|          ------------------
-0----------7--6----|  x4      ---------6--------
-0----------7--6----|          ---------6--------
-0----------7--6----|          ---------6--------

riff 1
---------------------------------------------------------------------------|
---------------------------------------------------------------------------|
------5h7------------------------------------------------------------------|
--0-------6----------------3---3-4-----------0-------3-x-2h3-0---2/3-3-3/5-|
--0---------5h7/8----------3---3-4---------0---3-2-0-3-x-2h3-0-------------|
--0----------------7-6~--0-3-0-3-4---0-2-3-----------3-x-2h3-0---2/3-3-3/5-|
                     ah  .   .       . . . . . . . . 

-------------||
------------.||
-------------||
-5-5/6-6-----|| x4
------------.||
-5-5/6-6-----||

riff 2
----------------------------------------------------------------------|
----------------------------------------------------------------------|
-2-----------------------------2------------6-6-6---------------------|
-2----3-1----------------------2---3-1---5--4-4-4-6-6-6-5-5-----------| x2
-0----3-1----------------------0---3-1---3--------4-4-4-3-3-----------|
------3-1----3-2-1-3-2-1-3-2-1-----3-1--------------------------------|
             . . . . . . . . .

riff 1 (x2)

riff 2 (x2)


-----------------------------------------------------------------------||
----------------------------------------------------------------------.||
-----------------------------------------------------------------------||
-----------------------------------------------------------------------|| x4
----------------------------------------------------------------------.||
-1111--3-2-3-4444--4-3-4-7777--7-4-3-4444-3-1-3------------------------||
 ....  . . . ....  . . . ....  . . . .... . . . 


-----------------------|
-----------------------|
-----------------------|
-----------------------| x24
----0000-0000----------|
----0000-0000----------|
    .... ....


--------------------------------------------------------------------------|
--------------------------------------------------------------------------|
--------------------------------------------------------------------------|
-------------------------------------------8--------------8/12-12-12\8--8-|x3
------------------------------0--------5h7--------------------------------|
--2222-2222----2222-2-0-2-3-5---2222---------999-888-666--8/12-12-12\8--8-|
  .... ....    .... . . . . . . ....         ... ... ... 


--------------------------------------------------------------------------|
--------------------------------------------------------------------------|
--------------------------------------------------------------------------|
-------------------------------------------8-------------9-9-9-9\8-8------|
------------------------------0--------5h7--------------------------------|
--2222-2222----2222-2-0-2-3-5---2222---------999-888-666-9-9-9-9\8-8------|
  .... ....    .... . . . . . . ....         ... ... ... 


------------------------------------------------------------------------||
-----------------------------------------------------------------------.||
------------------------------------------------------------------------||
------------------------------------------------------------------------||x4
-----------------------------------------------------------------------.||
-0000-3-2-3-4444-4-3-4-7777-7-4-3-4444-4-3-4----------------------------||
 .... . . . .... . . . .... . . . .... . . .


riff 2


---------------|
---------------|
--2------------|
--1------------|
--0------------|
--1------------|



-------------------------------------------------------------------------||
---8-8-8----------------------------------------------------------------.||
---8-8-8---------9-9-9-----------6-6-6-6-6-6-6-6-6-6-6-6-----------------||
-x-6-6-6-7-7-7---9-9-9---3-3--x--3-3-3-3-3-3-3-3-3-3-3-3-----------------||
-x-------7-7-7---7-7-7---3-3--x--3-3-3-3-3-3-3-3-3-3-3-3----------------.||
-x-------7-7-7---7-7-7---3-3--x--3-3-3-3-3-3-3-3-3-3-3-3-----------------||





.   palm mute
/   slide up
\   slide down
h   hammer-on
p   pull-off
~   vibrato
+   harmonic
x   Mute note
ah  artificial harmonic
comments
We did not receive enough feedback on this tab! Please rate:
print report bad tab
1 2 3 4 5
I want to post or [tab]
guest
You may want to rate the tab now too:
select rating
Please do not post tabs as comments. Select "correction" instead!