Oops, an error
Loading. Please wait.

Once In A While ukulele

599 views 1 this week
no commentswrite comment
1 2 3 4 5
3 more votes to show rating
add to favorites
×
Save as Personal and add changes to this tab that will be seen only by you. Learn more ›
×
You can save this tab as Personal to edit and correct it or add notes. All changes will be seen only by you. Learn more »
launch autoscroll
font size
0
reset
transpose
0
reset
simplify chords
display chords
guitar tuner
edit
Autoscroll
slow
fast
+/-
esc
set tempo
stop
Strumming
There is no strumming pattern for this song yet. and get +5 IQ
-----------------------------------------------------------------------------
                             Once in a while - Trevor hall
-----------------------------------------------------------------------------
Tabbed by:JoshH7

Tuning:standard
Capo: 2nd Fret

all notes relative to Capo

     C             F7    Am      C
e|---------0-------0---0---0-------0-----------|
B|--1--3---1---3---1-------1-------1-----------|
G|---------0-------2-------2---2---0-----------|
D|---------2-------3-------2-------2-----------|
A|---------3-------0-------0-------3-----------|
E|---------0-------0-------0-------0-----------|

Chorus:
     Am     F7     C
e|---0------0------0-------|
B|---1------1------1-------|
G|---2------2------0-------|
D|---2------3------2-------|
A|---0------0------3-------|
e|---0------0------0-------|


Lyrics:

Once in a while
Well I have a strange dream
My mind flashes by on a technicolor screen
It seems that I was just a child running wild to my own song
As I get older
Well my city gets colder
So I hide in the country where the weight is off my shoulders
So I can fly
Into those lotus eyes
Oh my my

I've got food for me and you
Everything it rings so true
When the melody's in tune
So lets begin to sing and play
What is real will stay
The rest will fall away
Don't think of yesterday
All will be ok

Well I remember all those days in November
When I started counting marbles
Singing songs of how I never would lie to my mama now
This time I'll make her proud
I planted seeds
I planted them in soil
Soil that won't spoil
My love is oh so loyal
Boil up the nectar now
Take a sip and pass it around

            
            
Suggest correction
Creating personal tab
Creating personal tab
You can edit any tab online and save it as your Personal.

You can edit, replace or remove any tab part or add personal notes – all changes will be seen only by you.

Personal tabs can be accessed anytime from any device, even offline.
Learn more »
Give kudos to tab author, rate the tab!
1 2 3 4 5
comments
print report bad tab
guest
Wanna post a correction for this tab? Suggest correction