Oops, an error
Loading. Please wait.

Venomous Tab

7 views 7 this week
no commentswrite comment
1 2 3 4 5
3 more votes to show rating
add to favorites
launch autoscroll
font size
0
reset
how to read this tab
guitar tuner
Autoscroll
slow
fast
+/-
esc
set tempo
stop
Help us to improve Ultimate-Guitar.com Take our survey!
×
Author
Difficulty
intermediate
e|---------------------------------------------------------------------------------------------|
B|--------------------------------------------------------0-----------0-------------0----------|
G|-----0---0-----0---------0-----0-----0--------0---0-------------0-------------------0--------|
D|---5---5---5-----------7---7\5---5----------5---5---5---------7---7---7--------5-------5-----|
A|-7-----------7-------5-------------3------7-----------7-----5-----------5\3--3-------3-------|
E|---------------------------------------------------------------------------------------------|
When he plays it live he kinda throws the B string in once in a while I think the beginning part goes 
something like this
e|-------------------------------------------------------------------------------------|
B|----------0------------0------------------0------------0-----------------------------|
G|------0-------------------------------0------------------0---------------------------|
D|----5---5---5---5----5---5--5-------7---7---7--------5-------5-----------------------|
A|--7-----------7----7------7-------5-----------5\3--3-------3-------------------------|
E|-------------------------------------------------------------------------------------|

I am pretty sure that most of the song just rotates different parts of this tab but i may be wrong it
might just be the intro. Watch when he plays it live to help see how he holds his hands, its your 1st finger
on the 5th fret of the D string and your 3rd finger on the 7th fret of the A string, then your first finger 
on the 5th fret of the A string and your 3rd finger on the 7th fret of the D string, and finally you just
slide that shape down so that your 1st finger is on the 3rd fret of the A string and your 3rd fingers is on
the 5th fret of the D string.
Live video : https://youtu.be/W9GA-6bobd8 


************************************

| \  Slide down

************************************
Suggest correction
Give kudos to tab author, rate the tab!
1 2 3 4 5
comments
print report bad tab
guest
You may want to rate the tab now too:
select rating
Wanna post a correction for this tab? Suggest correction