Oops, an error
Loading. Please wait.

Well I Say tab

version 2
version 2

Whole song

Interactive

22,890 views 78 this week
3 commentsread comments
1 2 3 4 5
x 15
add to favorites
×
Save as Personal and add changes to this tab that will be seen only by you. Learn more ›
×
You can save this tab as Personal to edit and correct it or add notes. All changes will be seen only by you. Learn more »
launch autoscroll
font size
0
reset
how to read this tab
guitar tuner
edit
Autoscroll
slow
fast
+/-
esc
set tempo
stop
------------------------------------------------------------------------------
                             Well I Say - Trevor Hall
-------------------------------------------------------------------------------
Tabbed by:SullyDGS

Tuning:Standard Capo 2nd Fret


[Intro and Verse]

e|------------------------------------0-----------------------------------0--|
B|----8---------5---------0-----0---------8--10-----5---------0-----0--------|
G|------------------------4-----4-----------------------------4-----4--------|
D|----9---------5-------------------------9---------5------------------------|
A|----7---------3---------5-----5---------7---------3---------5-----5--------|
E|------------------------3-----2-----------------------------3-----2--------|

Repeat this throughout verses


[Chorus]

e|-----3-0-----------------3-0-----------------------------------------------|
B|---------5-----------3-----------------------------------------------------|
G|-----------4-0---4-----4---------------------------------------------------|
D|---------------0---0-------------------------------------------------------|
A|---------------------------------------------------------------------------|
E|---------------------------------------------------------------------------|


Thanks for using... Rate! :)


************************************

| /   slide up
| \   slide down
| h   hammer-on
| p   pull-off
| ~   vibrato
| +   harmonic
| x   Mute note
| b   Bend
| pb  Pre-bend
| br  Bend release
| pbr Pre-bend release
| brb Bend release bend

************************************
Suggest correction
Creating personal tab
Creating personal tab
You can edit any tab online and save it as your Personal.

You can edit, replace or remove any tab part or add personal notes – all changes will be seen only by you.

Personal tabs can be accessed anytime from any device, even offline.
Learn more »
comments
print report bad tab
3 comments total.
0 reply
lilymue 10 May 19, 2013 08:06 PM

Sounds good, thank you :)

0 reply
fatspliffs 1,052 Nov 15, 2013 06:09 AM

i think the fundamental chords are something like: F#m|D|A|.. i think he repeats the A the last time

0 reply
davidbaas1231 10 Mar 12, 2016 08:18 AM, edited at 01:24 pm

Every 5(except for the G string) can be played as the open higher string. This can be used to make it easier. So:e|--------------0---------------------0-------------0---------------------0--|B|----8-------------------0-----0---------8--10---------------0-----0--------|G|--------------0-----------------------------------0------------------------|D|----9-------------------0-----0---------9-------------------0-----0--------|A|----7---------3-------------------------7---------3------------------------|E|------------------------3-----2-----------------------------3-----2--------|
Chorus:
e|-----3-0-0---------------3-0-----------------------------------------------|
B|-----------0-----0---3-0---------------------------------------------------|
G|-------------0-------------------------------------------------------------|
D|---------------0---0-------------------------------------------------------|
A|---------------------------------------------------------------------------|
E|---------------------------------------------------------------------------|

guest
You may want to rate the tab now too:
select rating
Wanna post a correction for this tab? Suggest correction