Oops, an error
Loading. Please wait.

Promentory Last Of The Mohicans tab

2,473 views 15 this week
no commentswrite comment
1 2 3 4 5
1 last vote to show rating
add to favorites
×
Save as Personal and add changes to this tab that will be seen only by you. Learn more ›
×
You can save this tab as Personal to edit and correct it or add notes. All changes will be seen only by you. Learn more »
launch autoscroll
font size
0
reset
how to read this tab
guitar tuner
edit
Autoscroll
slow
fast
+/-
esc
set tempo
stop
About this tab version
This is beautiful on guitar..and tab'd note for note. Take your time and once you learn it will just flow. Was this info helpful? Yes No
-------------------------------------------------------------------------------
                             PROMENTORY - LAST OF THE MOHICANS THEME SONG
-------------------------------------------------------------------------------
Tabbed by: an old hippie
E-mail: nothanks@idontwantanyemails.com

Tuning: EADGBe and CAPO on 3rd

Pretty much everything needs to RING OUT/NOT BE MUTED, let it breathe man.
If you know how to finger-sweep "thumb/i/m/r/p" that sounds better than just playing the chord all at once.
Kind of reminds me of "the little drummer boy" (pada loom...2, 3, 4... pada loom...2, 3, 4), let it ring out.

e|---------------------------------------------------------------------------|
B|------------------------------------------1--------0-----------------------|
G|---2~~------2---------0-------------------0--------0--------2-------2------|
D|---2--------2---------0---------0---------2--------0--------2-------2------|(play twice)
A|---0--------0-------------------2---------3--------2--------0-------0------|
E|----------------------3---------3---------3--------3-----------------------|

e|---------------------------------------------0~~---------------------------|
B|----------------------------0--3~~-(3)------1------3--1--0--3~~------------|
G|---5~~--4--2--------2--5------------0-------0------------0------4--2~~--2~~|
D|---2----------2~~-------------------0-------2------------------(2)------2--|(play twice)
A|---0----------0-----0---------------2-------3-------------------0-------0--|
E|----------------------------3-------3-------3------------3-----------------|

e|---------------------------------------------------------------------------|
B|---------------------------------------------------------------------------|
G|--2---2-2---2---5-4-2----2-2-----2---2-2---2---5^4-2--4^2------------------|(quickly to the next)
D|----2-----2------------2-----------2-----2-----------------2---------------|
A|--0--------------------0---------0-------------0------0----0---------------|
E|---------------------------------------------------------------------------|

e|---------------------------------------------------------------------------|
B|---------------------------------------------------------------------------|
G|--2---2--5^4-2-4^2-2---2---------2---2--5^4-2-4^2-2---2--------------------|(quickly to the next)
D|----2----------------5---5^0-------2----------------5---5^0----------------|
A|--0------------------------------0-----------------------------------------|
E|---------------------------------------------------------------------------|

e|---------------------------------------------------------------------------|
B|---------0----0--3-0-0-0---0------------0----0--3-0-0-0---0----------------|
G|--0----0----0------------2------0-----0----0------------2------------------|(quickly to the next)
D|-----0------------------------------0--------------------------------------|
A|---------------------------------------------------------------------------|
E|--3-----------------------------3------------------------------------------|

e|---------------------------------------------------------------------------|
B|--1----1-1----1---3--1-1-1-0-------0----0-0----0-3---0-0-0-----------------|
G|--0----0-0----0---0--0-0-0-0--2----0----0-0----0-0---0-0-0--2-0------------|
D|--2--2------2----------------------0--0------0-----------------------------|
A|--3--------------------------------2---------------------------------------|
E|--3--------------------------------3---------------------------------------|

e|---------------------------------------------------------------------------|
B|---------------------------------------------------------------------------|
G|--2---2-2---2---5-4-2----2-2-----2---2-2---2---5^4-2--4^2------------------|(quickly to the next)
D|----2-----2------------2-----------2-----2-----------------2---------------|
A|--0--------------------0---------0-------------0------0----0---------------|
E|---------------------------------------------------------------------------|

e|---------------------------------------------------------------------------|
B|---------------------------------------------------------------------------|
G|--2---2--5^4-2-4^2-2---2---------2---2--5^4-2-4^2-2---2--------------------|(quickly to the next)
D|----2----------------5---5^0-------2----------------5---5^0----------------|
A|--0------------------------------0-----------------------------------------|
E|---------------------------------------------------------------------------|

e|---------------------------------------------------------------------------|
B|---------0----0--3-0-0-0---0------------0----0--3-0-0-0---0----------------|
G|--0----0----0------------2------0-----0----0------------2------------------|(quickly to the next)
D|-----0------------------------------0--------------------------------------|
A|---------------------------------------------------------------------------|
E|--3-----------------------------3------------------------------------------|

e|---------------------------------------------------------------------------|
B|--1----1-1----1---3--1-1-1-0-------0----0-0----0-3---0-0-0-----------------|
G|--0----0-0----0---0--0-0-0-0--2----0----0-0----0-0---0-0-0--2-0---2--2-----|
D|--2--2------2----------------------0--0------0--------------------2--2~~---|(then slow to the end)
A|--3--------------------------------2------------------------------0--0-----|
E|--3--------------------------------3---------------------------------------|

e|---------------------------------------------0~~---------------------------|
B|----------------------------0--3~~-(3)------1------3--1--0--3~~------------|
G|---5~~--4--2--------2--5------------0-------0------------0------4--2~~--2~~|
D|---2----------2~~-------------------0-------2------------------(2)------2--|(that's how I end it..in tears)
A|---0----------0-----0---------------2-------3-------------------0-------0--|
E|----------------------------3-------3-------3------------3-----------------|

************************************

| /   slide up
| \   slide down
| h   hammer-on
| p   pull-off
| ~   vibrato
| +   harmonic
| x   Mute note
| b   Bend
| pb  Pre-bend
| br  Bend release
| pbr Pre-bend release
| brb Bend release bend

************************************

            
            
Suggest correction
Creating personal tab
Creating personal tab
You can edit any tab online and save it as your Personal.

You can edit, replace or remove any tab part or add personal notes – all changes will be seen only by you.

Personal tabs can be accessed anytime from any device, even offline.
Learn more »
Give kudos to tab author, rate the tab!
1 2 3 4 5
comments
print report bad tab
guest
You may want to rate the tab now too:
select rating
Wanna post a correction for this tab? Suggest correction