Oops, an error
Loading. Please wait.

End Of An Act Tab

version 1
version 1

Whole song

4,608 views 3 this week
3 commentsread comments
1 2 3 4 5
please rate
add to favorites
launch autoscroll
font size
0
reset
how to read this tab
guitar tuner
Autoscroll
slow
fast
+/-
esc
set tempo
stop
Help us to improve Ultimate-Guitar.com Take our survey!
×
Difficulty
intermediate
The End of An Act (Pearl Harbour Sucked)
By Trey Parker
From: Team America Sound Track
Tab by: Nicholas Browne
www.supacomix.co.uk

You really need to listen to this song to get it right, i am pretty sure about the main 

riff section but if u find something better sent it to me :D

Enjoy :)


Main Riff
6|--------0---------0----------0---------|  
5|-2-2-2-2--0-0-0-0----------0----0----0-|
4|--------------------2----2--------1----|   
3|---------------------------------------|
2|---------------------------------------|
1|---------------------------------------|


A                    E                        F#m
I Miss You More Then Michael bay missed the mark
        E
When He Made Pearl Harbour
A                         E                 F#m
I Miss You More Then that movie missed the point
             E
And Thats an awful lot girl
D                    A
And Now, now you've gone away
E                     F#m
And all i'm trying to say
G                       GE             A
Is Pearl Harbour Sucked, and i miss you!

Main Riff x 2

A                    E                   F#m
I need you like ben afleck needs acting school
        E
He was terrible in that film
A                    E                       F#m
I need you like Cuba Gooding needed a bigger part
         E
He's way better than ben afleck 
D                   A
And Now, All i can think about is your smile
E                     F#m
And that shitty movie too
G                          GE             A
'Cause Pearl Harbour Sucked, and i miss you!

AAAA, EEEEE, F#m  F#mF#mF#mF#m, E E E E x 2

G
Why does Michael Bay 
E                     A
Get to keep on making movies
G                
I guess Pearl Harbour Sucked
GE                                 A
Just a little bit more then i miss you

Main Riff x 2 then strum A slowly
comments
We did not receive enough feedback on this tab! Please rate:
print report bad tab
1 2 3 4 5
3 comments total.
0 reply
HeavyReverb 976 wrote on November 26 2008, 03:58 pm

Main Riff should be
6|--------0---------0---------------------|
5|-2-2-2-2--0-0-0-0----------0--2--0------|
4|--------------------2----2----------2-1-|
3|----------------------------------------|
2|----------------------------------------|
1|----------------------------------------|

0 reply
HeavyReverb 976 wrote on November 26 2008, 04:01 pm

Sorry I forgot to correct the first part
6|-------0-----------0----|-------------------|
5|-2-2-2---0---0-0-0------|------0--2--0------|
4|---------------------2--|--2------------2-1-|
3|------------------------|-------------------|
2|------------------------|-------------------|
1|------------------------|-------------------|

0 reply
ma12789 413 wrote on February 5 2010, 02:59 pm


|-9-9-9-12-7---7-7-7-12-5-|-5-7-7/9-7-5/7-|
|-------------------------|---------------|
|-------------------------|---------------|
|-------------------------|---------------|
|-------------------------|---------------|
|-------------------------|---------------|

same notes (kinda) but higher octave

I want to post or [tab]
guest
You may want to rate the tab now too:
select rating
Please do not post tabs as comments. Select "correction" instead!