Oops, an error
Loading. Please wait.

Everyone Has Aids Tab

1,261 views 1 this week
no commentswrite comment
1 2 3 4 5
please rate
add to favorites
launch autoscroll
font size
0
reset
how to read this tab
guitar tuner
Autoscroll
slow
fast
+/-
esc
set tempo
stop
Help us to improve Ultimate-Guitar.com Take our survey!
×
     Q    E  E  E  E  E  E     E  E  E  E  E  E  E  E   
D||-------------------------|--------------------------|
A||-------------------------|--------------------------|
F||--7----7--7--7--7--7--7--|--7-----------------------|
C||--7----7--7--7--7--7--7--|--7-----------------------|
G||--5----5--5--5--5--5--5--|--5-----------------------|
D||-------------------------|--------------------------|


  Q    Q    E  E  E  E     Q    Q    E  E  E  E     Q    Q    E  E  E  E   
------------------------|------------------------|------------------------|
------------------------|------------------------|------------------------|
------------5--5-----7--|--L----7----5--5--------|------------5--5-----5--|
--5----5----5--5-----7--|--L----7----5--5--------|--5----5----5--5-----3--|
--5----5----3--3-----5--|--L----5----3--3--------|--5----5----3--3--------|
--3----3----------------|------------------------|--3----3----------------|


  Q    Q    E  E  E  E     Q    Q    E  E  E  E     Q    Q    E  E  E  E   
------------------------|------------------------|------------------------|
------------------------|------------------------|------------------------|
--L----5----5--5--------|------------5--5-----7--|--L----7----5--5--------|
--L----3----5--5--------|--5----5----5--5-----7--|--L----7----5--5--------|
------------3--3--------|--5----5----3--3-----5--|--L----5----3--3--------|
------------------------|--3----3----------------|------------------------|


  Q    Q    E  Q.        E  E  H.              W                 
----------------------|---------------------|-------------------|
----------------------|---------------------|-------------------|
------------7--5------|---------------------|-------------------|
--5----5----7--5------|--5------------------|--5----------------|
--5----5----5--3------|--5------------------|--5----------------|
--3----3--------------|--3------------------|--3----------------|


  W                   W                   W                   W                 
-------------------|-------------------|-------------------|-------------------|
-------------------|-------------------|-------------------|-------------------|
-------------------|-------------------|-------------------|--3----------------|
--L----------------|--5----------------|--L----------------|--3----------------|
--L----------------|--5----------------|--L----------------|--1----------------|
--L----------------|--3----------------|--L----------------|-------------------|


  W                   W                   W                   W                 
-------------------|-------------------|-------------------|-------------------|
-------------------|-------------------|-------------------|-------------------|
--L----------------|-------------------|-------------------|--8----------------|
--L----------------|--3----------------|--L----------------|--8----------------|
--L----------------|--3----------------|--L----------------|--6----------------|
-------------------|--1----------------|--L----------------|-------------------|


  W                   W                   W                   W                 
-------------------|-------------------|-------------------|-------------------|
-------------------|-------------------|-------------------|-------------------|
--L----------------|-------------------|-------------------|--3----------------|
--L----------------|--5----------------|--L----------------|--3----------------|
--L----------------|--5----------------|--L----------------|--1----------------|
-------------------|--3----------------|--L----------------|-------------------|


  W                   W                   W                   W                 
-------------------|-------------------|-------------------|-------------------|
-------------------|-------------------|-------------------|-------------------|
--L----------------|-------------------|-------------------|--8----------------|
--L----------------|--3----------------|--L----------------|--8----------------|
--L----------------|--3----------------|--L----------------|--6----------------|
-------------------|--1----------------|--L----------------|-------------------|


                           PM PM PM PM PM PM    PM PM PM PM PM PM PM PM  
  W                   Q    E  E  E  E  E  E     E  E  E  E  E  E  E  E   
-------------------|-------------------------|--------------------------|
-------------------|-------------------------|--------------------------|
--L----------------|-------------------------|--------------------------|
--L----------------|--7----7--7--7--7--7--7--|--7--7--7--7--7--7--7--7--|
--L----------------|--5----5--5--5--5--5--5--|--5--5--5--5--5--5--5--5--|
-------------------|-------------------------|--------------------------|


  PM PM PM PM PM PM PM PM    PM PM PM PM PM PM PM PM  
  E  E  E  E  E  E  E  E     E  E  E  E  E  E  E  E   
--------------------------|--------------------------|
--------------------------|--------------------------|
--------------------------|--------------------------|
--8--8--8--8--8--8--8--8--|--8--8--8--8--8--8--8--8--|
--6--6--6--6--6--6--6--6--|--6--6--6--6--6--6--6--6--|
--------------------------|--------------------------|


  PM PM PM PM PM PM PM PM    PM PM PM PM PM PM PM PM  
  E  E  E  E  E  E  E  E     E  E  E  E  E  E  E  E   
--------------------------|--------------------------|
--------------------------|--------------------------|
--------------------------|--------------------------|
--9--9--9--9--9--9--9--9--|--9--9--9--9--9--9--9--9--|
--7--7--7--7--7--7--7--7--|--7--7--7--7--7--7--7--7--|
--------------------------|--------------------------|


  E  E  E  E  E  E  E  E     Q    Q    E  E  E  E     Q    Q    E  E  E  E   
--------------------------|------------------------|------------------------|
--------------------------|------------------------|------------------------|
--------------------------|------------7--7-----9--|--L----9----7--7--------|
--9-----------------------|--7----7----7--7-----9--|--L----9----7--7--------|
--7-----------------------|--7----7----5--5-----7--|--L----7----5--5--------|
--------------------------|--5----5----------------|------------------------|


  Q    Q    E  E  E  E     Q    Q    E  E  E  E     Q    Q    E  E  E  E   
------------------------|------------------------|------------------------|
------------------------|------------------------|------------------------|
------------7--7-----7--|--L----7----7--7--------|------------7--7-----9--|
--7----7----7--7-----5--|--L----5----7--7--------|--7----7----7--7-----9--|
--7----7----5--5--------|------------5--5--------|--7----7----5--5-----7--|
--5----5----------------|------------------------|--5----5----------------|


  Q    Q    E  E  E  E      E   E   E   E   E   E   E   E   
------------------------|----------------------------------|
------------------------|----------------------------------|
--L----9----7--7--------|----------------------------------|
--L----9----7--7--------|--10--10--10--10--10--10--10--10--|
--L----7----5--5--------|---8---8---8---8---8---8---8---8--|
------------------------|----------------------------------|


   E   E   E   E   E   E   E   E      E   E  E   E  E   E  E   E   
----------------------------------|-------------------------------|
----------------------------------|-------------------------------|
----------------------------------|--14--12-----------------------|
--12--12--12--12--12--12--12--12--|--14--12-----14-----12-----10--|
--10--10--10--10--10--10--10--10--|--12--10-----14-----12-----10--|
----------------------------------|-------------12-----10------8--|


  E  E  E  E   E   E  Q       E  E  E  E  E  E  E  E   
---------------------------|--------------------------|
---------------------------|--------------------------|
---------------------------|--------------------------|
-----7-----7--10--10--7----|--------------------------|
-----7-----7--10--10--7----|--------------------------|
-----5-----5---8---8--5----|--5--3-----1-----1-----1--|


  E  E  E  E  E  E  Q       Q    Q    Q    Q      
-------------------------|----------------------||
-------------------------|----------------------||
-------------------------|----------------------||
-------------------------|--7-------------------||
-------------------------|--7-------------------||
-----1-----1--1--1--3----|--5-------------------||




Duration Legend
---------------
W - whole
H - half
Q - quarter
E - 8th
S - 16th
T - 32nd
X - 64th
. - note dotted
|-n-|  - n-tuplets


Tablature Legend
----------------
L - tied note
x - dead note
g - grace note
(n) - ghost note
> - accentuded note
NH - natural harmonic
AH - artificial harmonic
TH - tapped harmonic
SH - semi harmonic
PH - pitch harmonic
h - hammer on
p - pull off
b - bend
br - bendRelease
pb - preBend
pbr - preBendRelease
brb - bendReleaseBend
\n/ - tremolo bar dip
\n - tremolo bar dive
-/n - tremolo bar Release up
/n\ - tremolo bar inverted dip
/n - tremolo bar return
-\n - tremolo bar Release down
S - shift slide
s - legato slide
/ -  slide into from below or out of upwards
\ -  slide into from above or out of downwards
~ - vibrato
W - wide vibrato
tr - trill
TP - tremolo picking
T - tapping
S - slap
P - pop
< - fade in
^ - brush up
v - brush down
comments
We did not receive enough feedback on this tab! Please rate:
print report bad tab
1 2 3 4 5
I want to post or [tab]
guest
You may want to rate the tab now too:
select rating
Please do not post tabs as comments. Select "correction" instead!