Oops, an error
Loading. Please wait.

Brotherhood tab

by Trezze
7 views 3 this week
no commentswrite comment
1 2 3 4 5
3 more votes to show rating
add to favorites
×
Save as Personal and add changes to this tab that will be seen only by you. Learn more ›
×
You can save this tab as Personal to edit and correct it or add notes. All changes will be seen only by you. Learn more »
launch autoscroll
font size
0
reset
how to read this tab
guitar tuner
edit
Autoscroll
slow
fast
+/-
esc
set tempo
stop
Brotherhood
Tune: DADGAD / Dsus4
Tabbed by Vinícius Trezze
https://www.facebook.com/vinitrezze

[Intro Riff
]
D|------------------------------|
A|-----0--------------0---------|
G|--------0---0---------0---0---|
D|---0------0--------0----0-----|
A|------------------------------|
D|-0-------------0--------------|

D|------------------------------|
A|-----0-------------0----------|
G|-------0---0---------0---0----|
D|---0-----0-------0-----0------|
A|------------------------------|
D|-3-------------3--------------|

D|------------------------------|
A|-----0-------------0----------|
G|-------0---0---------0---0----|
D|---0-----0-------0-----0------|
A|------------------------------|
D|-5-------------5--------------|

D|------------------------------|
A|------------------------------|
G|------------------------------|
D|--------X-X-X-----------------|
A|--------X-X-X--12/5-----------|
D|--5~----X-X-X--12/5-----------|

[Verse
]
   Dsus    Csus9     G/B     Gm/Bb    Dsus4(7)
D|--0--------0--------0--------0--------0-------|
A|--0--------0--------2--------1--------0-------|
G|--7--------5--------0--------0--------0-------|
D|--7--------5--------0--------0--------0-------|
A|--5--------3--------2--------1---/----3-------|
D|--x--------x----------------------------------|

[Chorus
]
   Dsus   F6(9)   Gsus9
D|--0-------0-------0-------|
A|--0-------0-------0-------|
G|--7-------5-------7-------|
D|--7-------5-------7-------|
A|--5-------3-------5-------|
D|--x-------3-------5-------|

[Bridge
]
   Dsus   Csus9   F6(9)  Gsus9
D|--0-------0------0---/---0---|
A|--0-------0------0---/---0---|
G|--7-------5------5---/---7---|
D|--7-------5------5---/---7---|
A|--5-------3------3---/---5---|
D|--x-------x------3---/---5---|

[Solo
]
  Dsus   Csus9   F6(9)  Gsus9
D|--0------0------0---/---0---|
A|--0------0------0---/---0---|
G|--7------5------5---/---7---|  (x2)
D|--7------5------5---/---7---|
A|--5------3------3---/---5---|
D|--x------x------3---/---5---|

   Bb7   Csus9   Dsus
D|--0------0------0----|
A|--0------0------0----|
G|--3------5------7----| (x2)
D|--3------5------7----|
A|--1------3------5----|
D|--x------x------x----|

    Gsus9
D|---------------------|
A|---------------------|
G|---------------------|
D|---7-----------------|
A|---7-----------------|
D|---5-----------------|

[End
]
   Bb7   C6(9)  Dsus
D|--0-----0------0--------|
A|--0-----0------0--------|
G|--7-----9------7--------|
D|--8-----10-----7--------|
A|--8-----10-----5--------|
D|--8-----10-----x--------|

[End Riff
]
        Bb7                C6(9)                          Dsus
D|---------------------------------0-----------------------------------------|
A|-------------0-----------------------0-------------------------------------|
G|-------7-----------------9---------9----------------7------------------7---|
D|-----------8----------------10---------------7---7-----7--------7---7------|
A|----8----8----------10----10---------------5---5-----5--------5---5--------|
D|--8--------------10----------------------0------------------0--------------|

         Bb7                  Csus9                D5
D|------------------------------------0------------0-----------|
A|----------------0--------------------------------0-----------|
G|-------3-----3-------------5-----5-------5-------2-----------|
D|----3-----3-------------5-----5-------5----------0-----------|
A|-1-------------------3---------------------------0-----------|
D|-------------------------------------------------0-----------|


************************************

| x   Dead note
| /   Slide up
| ~   Vibrato

************************************

            
            
Suggest correction
Creating personal tab
Creating personal tab
You can edit any tab online and save it as your Personal.

You can edit, replace or remove any tab part or add personal notes – all changes will be seen only by you.

Personal tabs can be accessed anytime from any device, even offline.
Learn more »
Give kudos to tab author, rate the tab!
1 2 3 4 5
comments
print report bad tab
guest
You may want to rate the tab now too:
select rating
Wanna post a correction for this tab? Suggest correction