Oops, an error
Loading. Please wait.

Pelot Dhennebont chords

version 1
version 1

Whole song

  • More accurate lyrics, bombard solo included, chords for all verses.

Interactive

193 views 6 this week
no commentswrite comment
1 2 3 4 5
2 more votes to show rating
add to favorites
×
Save as Personal and add changes to this tab that will be seen only by you. Learn more ›
×
You can save this tab as Personal to edit and correct it or add notes. All changes will be seen only by you. Learn more »
launch autoscroll
font size
0
reset
transpose
0
reset
display chords
guitar tuner
edit
Autoscroll
slow
fast
+/-
esc
set tempo
stop
About this tab version
More accurate lyrics, bombard solo included, chords for all verses. Was this info helpful? Yes No
Strumming
There is no strumming pattern for this song yet. and get +5 IQ
Pelot d'Hennebont, Tri Yann
(Old french military song)

Capo : 1st fret

[Verse 1]
   Em      G
Ma chère maman je vous écris
                D             Bm
Que nous sommes entrés dans Paris
                D      Em
Que je sommes déjà caporal
                 D       Em
Et je s'rons bientôt Général

[Verse 2]
  Em          G
A la bataille je combattions
            D       Bm  
Les ennemis de la nation
             D            Em  
Et tous ceux qui se présentiont
                D              Em
A grands coups d'sabre les émondions

[Verse 3]
   Em         G   
Le roi Louis m'a z'appelé
               D                 Bm
C'est sans-quartier qu'il m'a nommé
              D                    Em 
Mais sans-quartier c'est point mon nom
                D                  Em  
J'lui dis j'm'appelle Pelot d'Hennebont

[Verse 4]
   Em          G 
Il a tiré z'un bieau ruban
             D                Bm  
Et je n'sais quoi au bout d'argent
              D            Em
Y m'dit boute ça sur ton habit
              D           Em
Et combats toujours l'ennemi

[Verse 5]
     Em              G
Faut qu'ce soit quéqu'chose de précieux
                     D             Bm
Pour que les autres m'appellent Monsieur
                    D         Em 
Et foutent lou main à lou chapieau
                  D           Em
Quant ils veulent conter au Pelot

[Bombard solo]
e|-13--15-13--11--8--13--11--13-11--10--8--10--11--15|
B|---------------------------------------------------| 
G|---------------------------------------------------| 
D|---------------------------------------------------| 
A|---------------------------------------------------| 
E|---------------------------------------------------|

e|-13--15-13--11--8--13--11--13-11--10--8--8-8-8-10--| 
B|---------------------------------------------------| 
G|---------------------------------------------------| 
D|---------------------------------------------------| 
A|---------------------------------------------------| 
E|---------------------------------------------------|

e|-10--6--10--8--8-8-8-6--6--3--6--8-----------------|  
B|---------------------------------------------------| 
G|---------------------------------------------------|    x2 
D|---------------------------------------------------| 
A|---------------------------------------------------| 
E|---------------------------------------------------|

[Verse 6]
   Em              G
Ma mère si j'meure en combattant
            D              Bm
J'vous enverrai ce bieau ruban
             D             Em
Et vous l'coudrez à vot' fusieau
            D         Em
En souvenir du gars Pelot

[Verse 7]
      Em         G
Dites à mon père à mon cousin
               D       Bm
A mes amis que je vais bien
             D           Em
Je suis leur humble serviteur
               D           Em 
Pelot qui vous embrasse le coeur

[Bombard solo]
e|-13--15-13--11--8--13--11--13-11--10--8--10--11--15|
B|---------------------------------------------------| 
G|---------------------------------------------------| 
D|---------------------------------------------------| 
A|---------------------------------------------------| 
E|---------------------------------------------------|

e|-13--15-13--11--8--13--11--13-11--10--8--8-8-8-10--| 
B|---------------------------------------------------| 
G|---------------------------------------------------| 
D|---------------------------------------------------| 
A|---------------------------------------------------| 
E|---------------------------------------------------|

e|-10--6--10--8--8-8-8-6--6--3--6--8-----------------|  
B|---------------------------------------------------| 
G|---------------------------------------------------|    x2 
D|---------------------------------------------------| 
A|---------------------------------------------------| 
E|---------------------------------------------------|

            
            
Suggest correction
Creating personal tab
Creating personal tab
You can edit any tab online and save it as your Personal.

You can edit, replace or remove any tab part or add personal notes – all changes will be seen only by you.

Personal tabs can be accessed anytime from any device, even offline.
Learn more »
Give kudos to tab author, rate the tab!
1 2 3 4 5
comments
print report bad tab
guest
You may want to rate the tab now too:
select rating
Wanna post a correction for this tab? Suggest correction