Oops, an error
Loading. Please wait.

Del Crepusculo Lento Tab

25 views 1 this week
no commentswrite comment
1 2 3 4 5
3 more votes to show rating
add to favorites
launch autoscroll
font size
0
reset
how to read this tab
guitar tuner
Autoscroll
slow
fast
+/-
esc
set tempo
stop
Help us to improve Ultimate-Guitar.com Take our survey!
×
Compas 6/8


                                                 |---3---|
     E  E  E   E   E  E     E  E  E  E  E  E     E   E   E  E  E  E  E
E||----------------------|--------------------|-------------------------|
B||----------------------|--------------------|--2h--3p--2-----0--------|
G||-------------------0--|--3--0-----------0--|-------------3-----0-----|
D||--------4p--3h--4-----|--------4--3--4-----|----------------------4--|
A||-----4----------------|--------------------|-------------------------|
E||--2-------------------|--L-----------------|--0----------------------|


  E  E  E  E  E  E     E  E  E  E  E  E     E  E  E  E  E  E
--------------------|-----0-----0--------|--------------------|
-----3--0--3--0-----|--------2-----2-----|--------------------|
-----------------0--|-----------------2--|-----------------4--|
--------------------|--------------------|--------5--4--5-----|
--------------------|--------------------|-----5--------------|
--3--------0--------|--3--------2--------|--0-----------------|


  E  E  E  E  E  E     H.              H.
--------------------|---------------|---------------||
--3--2--------------|---------------|---------------||
--------2--4--L-----|---------------|---------------||
--------------------|---------------|---------------||
--------------------|---------------|---------------||
--3-----------1--3--|--2------------|--L------------||
Suggest correction
Give kudos to tab author, rate the tab!
1 2 3 4 5
comments
print report bad tab
guest
You may want to rate the tab now too:
select rating
Wanna post a correction for this tab? Suggest correction