Oops, an error
Loading. Please wait.

La Luna Tab

by Triana
91 views 1 this week
no commentswrite comment
1 2 3 4 5
3 more votes to show rating
add to favorites
×
Save as Personal and add changes to this tab that will be seen only by you. Learn more ›
×
You can save this tab as Personal to edit and correct it or add notes. All changes will be seen only by you. Learn more »
save as personal
new!
launch autoscroll
font size
0
reset
how to read this tab
guitar tuner
Autoscroll
slow
fast
+/-
esc
set tempo
stop
Hola La Cuerda aquí les mando esta canción de Triana que habían pedido.


Intro:
   Bm             G            A           Bm
e *--------2--------------------------------------*
B *------------3----------------------------------*
G *------4---4------------------------------------* x3
D *-----------------------------------------------*
A *--------------------------------7p5h7h9--------*
E *----------------------------------------7------*
                                   Strings


 Bm              G          A           Bm
Apenas se fue la luna y el sol ya viene saliendo
Bm                 G          A            Bm
Traigo a la luna o el sol, el verano o el invierno
   Bm              A       G             F#
Si llevo encendida el alma dice que te estoy queriendo


D                                  A
Dame el sabor, dame el sabor de tu boca
D                                   A
Nunca el calor, nunca el calor de tu ternura
      G            F#    A     G     A    G    A    G   F#7
Apasionadamente


    Bm   Bbaug       A           G           A
e *--------------9p7--------------------10p9-7-----------
B *-7----------7-----10--8p7-8--------7--------10p9-10---
G *----------9----------------------9--------------------
D *------------------------------------------------------
A *------------------------------------------------------
E *------------------------------------------------------


G -----------------------------------------*
D -----6-5---4-3---------3-2---------------*
A ---------4-----------------2-5-4---------*
E ---6-----------------3-------------------*


Bm           G        A         Bm
Agua pura y cristalina apareciste
Bm              G            A    Bm
Cuando empezaste a quererme
    Bm       A         G           F#
Te fuiste lentamente y no podrás olvidarme


D                               A
Dame el sabor, dame el sabor de tu boca
D                                 A
Nunca el calor, nunca el calor de tu ternura
      G              D        A
Apasionadamente


D                               A
Dame el sabor, dame el sabor de tu boca
D                                 A
Nunca el calor, nunca el calor de tu ternura
      G              D        A
Apasionadamente

Solo:(D  A  D  A  G  D  A) Estos acordes se hacen durante todo el solo


e *------------------------------------------------------------------------
B *------------------------------------------------------------------------
G *--7--------7h9-7---7---9p7-6----------------7--------7h9-7---7---9p7-6--
D *-------7h9----------------------7-7s9s7---------7h9---------------------
A *------------------------------------------------------------------------
E *------------------------------------------------------------------------


e -------------------------------------------------------------------------
B ----------------------------------------------------10-------------------
G ---------------------------------------7-------9b10-----10r9-7h9---------
D --7-7s9-9s7------5-4-5----------7--7s9-----------------------------------
A -----------------------7-5--7s9------------------------------------------
E -------------------------------------------------------------------------


e -------------------------------------------------------------------------
B -------------------------------------------------------------------------
G --7--------7h9-7----9b11-11-11r9--7-6---6h7p6-------------7-6-7-6-7p6----
D -------7h9------------------------------------9-7-----7------------------
A ----------------------------------------------------9---9----------------
E -------------------------------------------------------------------------


e -------------------------------------------------------------------------
B ----------------------------------------------------------------------10-
G -6s7------7h9-7---9b11-11-11r9-9p7s6---------------------------7-9b11----
D ------7h9----------------------------9--7-5-4----------7---7-9-----------
A ----------------------------------------------7--5-7s9---9---------------
E -------------------------------------------------------------------------


e -------------------------------------------------------------------------
B ---------------------10---12-10------------------------7------7-10-10s12-
G -7h9p7-9b11-9-7-9s11-----------------6h7p6---6h7p9-7-9----7-9------------
D ---------------------------------7h9-------9-----------------------------
A -------------------------------------------------------------------------
E -------------------------------------------------------------------------


e --------------10---------------------------------------------------------
B --10-----10s8----7------8-8-7-8---7--------------------------------------
G --------------------------------9---7-9-7---7-6h7p6--------9---x-x-9--7--
D ----------------------------------------------------7------7---x-x-7-----
A -------------------------------------------------------------------------
E -------------------------------------------------------------------------


e -------------------------------------------10------------12b14-14-14r12--
B --10---------------------------------10s12----10h12-10-------------------
G -----9b11-11-11--7h9-7---7h9--7------------------------------------------
D -----------------------9-------------------------------------------------
A -------------------------------------------------------------------------
E -------------------------------------------------------------------------


e --10h12p10s9-------------9h10p9------------------------------------------
B --------------12---10h12--------10s12------12-12p10---10-10s8---8-8-8s7--
G -------------------------------------------------------------------------
D -------------------------------------------------------------------------
A -------------------------------------------------------------------------
E -------------------------------------------------------------------------


e ------------------------------------------------------------------10-x-9-
B --7h8p7s5---------------------------------------------------10s12--------
G ----------7p6---6h7p6-4-6---------------------7-9s11-9--7----------------
D --------------------------7-5-4-5---------7-9----------------------------
A ----------------------------------7-5-7s9--------------------------------
E -------------------------------------------------------------------------


e -x-7-x-------------------------------------------------------------------
B -------10-x-8-x-7--------8-7--------------------------10-----------------
G ------------------7----9-----7----7-7p6--------7-9-------9b11-7-9---7-9--
D ----------------------------------------7----9--------------------9------
A -------------------------------------------------------------------------
E -------------------------------------------------------------------------


e ----------------------------------------------------10----10---10p9------
B ------------7----7-8--7h8-10---10s12-12p10-------10----10------------10--
G --7-----7h9----9---------------------------------------------------------
D -------------------------------------------------------------------------
A -------------------------------------------------------------------------
E -------------------------------------------------------------------------


e ---------------------------------------------------2---*
B --8--8-7h8p7---------------------------------------3---*
G -------------9-7---6--6h7p6------------------------2---*
D ----------------------------9---7--9--11-----------0---*
A -------------------------------------------------------*
E -------------------------------------------------------*


La mayoría de los acordes son los básicos, sólo voy a poner el Bbaug

e *-------*
B *---3---*
G *---3---*
D *---4---*
A *---1---*
E *-------*
    Bbaug


Cualquier duda, corrección o comentario háganla al mail: hectorprs@
Suggest correction
Give kudos to tab author, rate the tab!
1 2 3 4 5
comments
print report bad tab
guest
Wanna post a correction for this tab? Suggest correction